  0
SECTION
  2
HEADER
  9
$ACADVER
  1
AC1015
  9
$ACADMAINTVER
 70
    20
  9
$DWGCODEPAGE
  3
ANSI_932
  9
$INSBASE
 10
0.0
 20
0.0
 30
0.0
  9
$EXTMIN
 10
-102.0068602686594
 20
-138.5095785730974
 30
-0.0015258207003583
  9
$EXTMAX
 10
90.04879616293374
 20
142.6317108821838
 30
0.0000000349246037
  9
$LIMMIN
 10
-102.001
 20
-138.501
  9
$LIMMAX
 10
90.00100000000001
 20
142.623131
  9
$ORTHOMODE
 70
     1
  9
$REGENMODE
 70
     1
  9
$FILLMODE
 70
     1
  9
$QTEXTMODE
 70
     0
  9
$MIRRTEXT
 70
     0
  9
$LTSCALE
 40
4.685369
  9
$ATTMODE
 70
     1
  9
$TEXTSIZE
 40
3.2
  9
$TRACEWID
 40
0.05
  9
$TEXTSTYLE
  7
高3.2
  9
$CLAYER
  8
0
  9
$CELTYPE
  6
ByLayer
  9
$CECOLOR
 62
   256
  9
$CELTSCALE
 40
1.0
  9
$DISPSILH
 70
     0
  9
$DIMSCALE
 40
1.0
  9
$DIMASZ
 40
2.5
  9
$DIMEXO
 40
0.25
  9
$DIMDLI
 40
0.2
  9
$DIMRND
 40
0.0
  9
$DIMDLE
 40
0.0
  9
$DIMEXE
 40
1.25
  9
$DIMTP
 40
0.0
  9
$DIMTM
 40
0.0
  9
$DIMTXT
 40
3.0
  9
$DIMCEN
 40
0.0
  9
$DIMTSZ
 40
0.0
  9
$DIMTOL
 70
     0
  9
$DIMLIM
 70
     0
  9
$DIMTIH
 70
     0
  9
$DIMTOH
 70
     0
  9
$DIMSE1
 70
     0
  9
$DIMSE2
 70
     0
  9
$DIMTAD
 70
     3
  9
$DIMZIN
 70
     8
  9
$DIMBLK
  1
Open30
  9
$DIMASO
 70
     1
  9
$DIMSHO
 70
     1
  9
$DIMPOST
  1

  9
$DIMAPOST
  1

  9
$DIMALT
 70
     0
  9
$DIMALTD
 70
     3
  9
$DIMALTF
 40
0.03937007874016
  9
$DIMLFAC
 40
1.0
  9
$DIMTOFL
 70
     1
  9
$DIMTVP
 40
0.0
  9
$DIMTIX
 70
     0
  9
$DIMSOXD
 70
     0
  9
$DIMSAH
 70
     0
  9
$DIMBLK1
  1

  9
$DIMBLK2
  1

  9
$DIMSTYLE
  2
1：1
  9
$DIMCLRD
 70
     0
  9
$DIMCLRE
 70
     0
  9
$DIMCLRT
 70
     4
  9
$DIMTFAC
 40
1.0
  9
$DIMGAP
 40
0.625
  9
$DIMJUST
 70
     0
  9
$DIMSD1
 70
     0
  9
$DIMSD2
 70
     0
  9
$DIMTOLJ
 70
     0
  9
$DIMTZIN
 70
     8
  9
$DIMALTZ
 70
     0
  9
$DIMALTTZ
 70
     0
  9
$DIMUPT
 70
     1
  9
$DIMDEC
 70
     2
  9
$DIMTDEC
 70
     2
  9
$DIMALTU
 70
     2
  9
$DIMALTTD
 70
     3
  9
$DIMTXSTY
  7
STANDARD
  9
$DIMAUNIT
 70
     0
  9
$DIMADEC
 70
     1
  9
$DIMALTRND
 40
0.0
  9
$DIMAZIN
 70
     2
  9
$DIMDSEP
 70
    46
  9
$DIMATFIT
 70
     0
  9
$DIMFRAC
 70
     0
  9
$DIMLDRBLK
  1
Open30
  9
$DIMLUNIT
 70
     2
  9
$DIMLWD
 70
    -2
  9
$DIMLWE
 70
    -2
  9
$DIMTMOVE
 70
     0
  9
$LUNITS
 70
     2
  9
$LUPREC
 70
     4
  9
$SKETCHINC
 40
0.1
  9
$FILLETRAD
 40
0.0
  9
$AUNITS
 70
     0
  9
$AUPREC
 70
     0
  9
$MENU
  1
.
  9
$ELEVATION
 40
0.0
  9
$PELEVATION
 40
0.0
  9
$THICKNESS
 40
0.0
  9
$LIMCHECK
 70
     0
  9
$CHAMFERA
 40
0.0
  9
$CHAMFERB
 40
0.0
  9
$CHAMFERC
 40
0.0
  9
$CHAMFERD
 40
0.0
  9
$SKPOLY
 70
     0
  9
$TDCREATE
 40
2455541.619010590
  9
$TDUCREATE
 40
2455541.244010591
  9
$TDUPDATE
 40
2457030.748400775
  9
$TDUUPDATE
 40
2457030.373400776
  9
$TDINDWG
 40
0.1424214931
  9
$TDUSRTIMER
 40
0.1424209491
  9
$USRTIMER
 70
     1
  9
$ANGBASE
 50
0.0
  9
$ANGDIR
 70
     0
  9
$PDMODE
 70
     0
  9
$PDSIZE
 40
0.0
  9
$PLINEWID
 40
0.0
  9
$SPLFRAME
 70
     0
  9
$SPLINETYPE
 70
     6
  9
$SPLINESEGS
 70
     8
  9
$HANDSEED
  5
AA1
  9
$SURFTAB1
 70
     6
  9
$SURFTAB2
 70
     6
  9
$SURFTYPE
 70
     6
  9
$SURFU
 70
     6
  9
$SURFV
 70
     6
  9
$UCSBASE
  2

  9
$UCSNAME
  2

  9
$UCSORG
 10
0.0
 20
0.0
 30
0.0
  9
$UCSXDIR
 10
1.0
 20
0.0
 30
0.0
  9
$UCSYDIR
 10
0.0
 20
1.0
 30
0.0
  9
$UCSORTHOREF
  2

  9
$UCSORTHOVIEW
 70
     0
  9
$UCSORGTOP
 10
0.0
 20
0.0
 30
0.0
  9
$UCSORGBOTTOM
 10
0.0
 20
0.0
 30
0.0
  9
$UCSORGLEFT
 10
0.0
 20
0.0
 30
0.0
  9
$UCSORGRIGHT
 10
0.0
 20
0.0
 30
0.0
  9
$UCSORGFRONT
 10
0.0
 20
0.0
 30
0.0
  9
$UCSORGBACK
 10
0.0
 20
0.0
 30
0.0
  9
$PUCSBASE
  2

  9
$PUCSNAME
  2

  9
$PUCSORG
 10
0.0
 20
0.0
 30
0.0
  9
$PUCSXDIR
 10
1.0
 20
0.0
 30
0.0
  9
$PUCSYDIR
 10
0.0
 20
1.0
 30
0.0
  9
$PUCSORTHOREF
  2

  9
$PUCSORTHOVIEW
 70
     0
  9
$PUCSORGTOP
 10
0.0
 20
0.0
 30
0.0
  9
$PUCSORGBOTTOM
 10
0.0
 20
0.0
 30
0.0
  9
$PUCSORGLEFT
 10
0.0
 20
0.0
 30
0.0
  9
$PUCSORGRIGHT
 10
0.0
 20
0.0
 30
0.0
  9
$PUCSORGFRONT
 10
0.0
 20
0.0
 30
0.0
  9
$PUCSORGBACK
 10
0.0
 20
0.0
 30
0.0
  9
$USERI1
 70
     0
  9
$USERI2
 70
     0
  9
$USERI3
 70
     0
  9
$USERI4
 70
     0
  9
$USERI5
 70
     0
  9
$USERR1
 40
0.0
  9
$USERR2
 40
0.0
  9
$USERR3
 40
0.0
  9
$USERR4
 40
0.0
  9
$USERR5
 40
0.0
  9
$WORLDVIEW
 70
     1
  9
$SHADEDGE
 70
     3
  9
$SHADEDIF
 70
    70
  9
$TILEMODE
 70
     1
  9
$MAXACTVP
 70
    64
  9
$PINSBASE
 10
0.0
 20
0.0
 30
0.0
  9
$PLIMCHECK
 70
     0
  9
$PEXTMIN
 10
1.000000000000000E+20
 20
1.000000000000000E+20
 30
1.000000000000000E+20
  9
$PEXTMAX
 10
-1.000000000000000E+20
 20
-1.000000000000000E+20
 30
-1.000000000000000E+20
  9
$PLIMMIN
 10
0.0
 20
0.0
  9
$PLIMMAX
 10
12.0
 20
9.0
  9
$UNITMODE
 70
     0
  9
$VISRETAIN
 70
     1
  9
$PLINEGEN
 70
     0
  9
$PSLTSCALE
 70
     1
  9
$TREEDEPTH
 70
  3020
  9
$CMLSTYLE
  2
Standard
  9
$CMLJUST
 70
     0
  9
$CMLSCALE
 40
1.0
  9
$PROXYGRAPHICS
 70
     1
  9
$MEASUREMENT
 70
     0
  9
$CELWEIGHT
370
    -1
  9
$ENDCAPS
280
     0
  9
$JOINSTYLE
280
     0
  9
$LWDISPLAY
290
     0
  9
$INSUNITS
 70
     0
  9
$HYPERLINKBASE
  1

  9
$STYLESHEET
  1
n-plot.ctb
  9
$XEDIT
290
     1
  9
$CEPSNTYPE
380
     0
  9
$PSTYLEMODE
290
     1
  9
$FINGERPRINTGUID
  2
{D7583C10-6848-438F-B3FB-327C4BFF9F8B}
  9
$VERSIONGUID
  2
{6A80820A-A941-47A9-8541-8838B4ED6316}
  9
$EXTNAMES
290
     1
  9
$PSVPSCALE
 40
0.0
  9
$OLESTARTUP
290
     0
  0
ENDSEC
  0
SECTION
  2
CLASSES
  0
CLASS
  1
ACDBDICTIONARYWDFLT
  2
AcDbDictionaryWithDefault
  3
ObjectDBX Classes
 90
        0
280
     0
281
     0
  0
CLASS
  1
MATERIAL
  2
AcDbMaterial
  3
ObjectDBX Classes
 90
     1153
280
     0
281
     0
  0
CLASS
  1
VISUALSTYLE
  2
AcDbVisualStyle
  3
ObjectDBX Classes
 90
     4095
280
     0
281
     0
  0
CLASS
  1
TABLESTYLE
  2
AcDbTableStyle
  3
ObjectDBX Classes
 90
     4095
280
     0
281
     0
  0
CLASS
  1
DICTIONARYVAR
  2
AcDbDictionaryVar
  3
ObjectDBX Classes
 90
        0
280
     0
281
     0
  0
CLASS
  1
SORTENTSTABLE
  2
AcDbSortentsTable
  3
ObjectDBX Classes
 90
        0
280
     0
281
     0
  0
CLASS
  1
ACDBPLACEHOLDER
  2
AcDbPlaceHolder
  3
ObjectDBX Classes
 90
        0
280
     0
281
     0
  0
CLASS
  1
LAYOUT
  2
AcDbLayout
  3
ObjectDBX Classes
 90
        0
280
     0
281
     0
  0
CLASS
  1
SCALE
  2
AcDbScale
  3
ObjectDBX Classes
 90
     1153
280
     0
281
     0
  0
CLASS
  1
MLEADERSTYLE
  2
AcDbMLeaderStyle
  3
ACDB_MLEADERSTYLE_CLASS
 90
     4095
280
     0
281
     0
  0
CLASS
  1
CELLSTYLEMAP
  2
AcDbCellStyleMap
  3
ObjectDBX Classes
 90
     1152
280
     0
281
     0
  0
ENDSEC
  0
SECTION
  2
TABLES
  0
TABLE
  2
VPORT
  5
8
330
0
100
AcDbSymbolTable
 70
     1
  0
VPORT
  5
56
330
8
100
AcDbSymbolTableRecord
100
AcDbViewportTableRecord
  2
*Active
 70
     0
 10
0.0
 20
0.0
 11
1.0
 21
1.0
 12
61.46679007005388
 22
-14.59300868183965
 13
0.0
 23
0.0
 14
1.0
 24
1.0
 15
0.0
 25
0.0
 16
0.0
 26
0.0
 36
1.0
 17
0.0
 27
0.0
 37
0.0
 40
442.4560029241361
 41
1.671532846715328
 42
50.0
 43
0.0
 44
0.0
 50
0.0
 51
0.0
 71
     0
 72
   100
 73
     1
 74
     1
 75
     0
 76
     0
 77
     0
 78
     0
281
     0
 65
     1
110
0.0
120
0.0
130
0.0
111
1.0
121
0.0
131
0.0
112
0.0
122
1.0
132
0.0
 79
     0
146
0.0
  0
ENDTAB
  0
TABLE
  2
LTYPE
  5
5
330
0
100
AcDbSymbolTable
 70
     4
  0
LTYPE
  5
28
330
5
100
AcDbSymbolTableRecord
100
AcDbLinetypeTableRecord
  2
ByBlock
 70
     0
  3

 72
    65
 73
     0
 40
0.0
  0
LTYPE
  5
29
330
5
100
AcDbSymbolTableRecord
100
AcDbLinetypeTableRecord
  2
ByLayer
 70
     0
  3

 72
    65
 73
     0
 40
0.0
  0
LTYPE
  5
2A
330
5
100
AcDbSymbolTableRecord
100
AcDbLinetypeTableRecord
  2
CONTINUOUS
 70
     0
  3
Solid-line
 72
    65
 73
     0
 40
0.0
  0
LTYPE
  5
3D
330
5
100
AcDbSymbolTableRecord
100
AcDbLinetypeTableRecord
  2
CENTER
 70
     0
  3
CENTER
 72
    65
 73
     4
 40
2.0
 49
1.25
 74
     0
 49
-0.25
 74
     0
 49
0.25
 74
     0
 49
-0.25
 74
     0
  0
LTYPE
  5
43
330
5
100
AcDbSymbolTableRecord
100
AcDbLinetypeTableRecord
  2
DASHED
 70
     0
  3
DASHED
 72
    65
 73
     2
 40
0.75
 49
0.5
 74
     0
 49
-0.25
 74
     0
  0
ENDTAB
  0
TABLE
  2
LAYER
  5
2
102
{ACAD_XDICTIONARY
360
2BA
102
}
330
0
100
AcDbSymbolTable
 70
     2
  0
LAYER
  5
25
102
{ACAD_XDICTIONARY
360
6B7
102
}
330
2
100
AcDbSymbolTableRecord
100
AcDbLayerTableRecord
  2
0
 70
     0
 62
     7
  6
CONTINUOUS
370
    -3
390
F
  0
LAYER
  5
2AA
330
2
100
AcDbSymbolTableRecord
100
AcDbLayerTableRecord
  2
Defpoints
 70
     0
 62
     7
  6
CONTINUOUS
290
     0
370
    -3
390
F
  0
ENDTAB
  0
TABLE
  2
STYLE
  5
3
330
0
100
AcDbSymbolTable
 70
     6
  0
STYLE
  5
26
330
3
100
AcDbSymbolTableRecord
100
AcDbTextStyleTableRecord
  2
STANDARD
 70
     0
 40
0.0
 41
1.0
 50
0.0
 71
     0
 42
0.2
  3
TXT
  4
BIGFONT
  0
STYLE
  5
2AB
330
3
100
AcDbSymbolTableRecord
100
AcDbTextStyleTableRecord
  2
高3.2
 70
     0
 40
3.2
 41
1.0
 50
0.0
 71
     0
 42
3.2
  3
txt.shx
  4
bigfont.shx
  0
STYLE
  5
2AC
330
3
100
AcDbSymbolTableRecord
100
AcDbTextStyleTableRecord
  2
高6.3
 70
     0
 40
6.299999999999998
 41
1.0
 50
0.0
 71
     0
 42
6.299999999999998
  3
txt.shx
  4
bigfont.shx
  0
STYLE
  5
2AE
330
3
100
AcDbSymbolTableRecord
100
AcDbTextStyleTableRecord
  2
高4.5
 70
     0
 40
4.5
 41
1.0
 50
0.0
 71
     0
 42
6.299999999999998
  3
txt.shx
  4
bigfont.shx
  0
STYLE
  5
2AF
330
3
100
AcDbSymbolTableRecord
100
AcDbTextStyleTableRecord
  2
高2
 70
     0
 40
2.0
 41
1.0
 50
0.0
 71
     0
 42
6.299999999999998
  3
txt.shx
  4
bigfont.shx
  0
ENDTAB
  0
TABLE
  2
VIEW
  5
6
330
0
100
AcDbSymbolTable
 70
     0
  0
ENDTAB
  0
TABLE
  2
UCS
  5
7
330
0
100
AcDbSymbolTable
 70
     0
  0
ENDTAB
  0
TABLE
  2
APPID
  5
9
330
0
100
AcDbSymbolTable
 70
     7
  0
APPID
  5
27
330
9
100
AcDbSymbolTableRecord
100
AcDbRegAppTableRecord
  2
ACAD
 70
     0
  0
APPID
  5
2B9
330
9
100
AcDbSymbolTableRecord
100
AcDbRegAppTableRecord
  2
ACAD_DSTYLE_DIMJOGGED_JOGANGLE_SYMBOL
 70
     0
  0
APPID
  5
50D
330
9
100
AcDbSymbolTableRecord
100
AcDbRegAppTableRecord
  2
ACAD_EXEMPT_FROM_CAD_STANDARDS
 70
     0
  0
APPID
  5
5A3
330
9
100
AcDbSymbolTableRecord
100
AcDbRegAppTableRecord
  2
ACAD_PSEXT
 70
     0
  0
APPID
  5
5EC
330
9
100
AcDbSymbolTableRecord
100
AcDbRegAppTableRecord
  2
ACAD_DSTYLE_DIMARC_LENGTH_SYMBOL
 70
     0
  0
APPID
  5
5ED
330
9
100
AcDbSymbolTableRecord
100
AcDbRegAppTableRecord
  2
ACAD_DSTYLE_DIMEXT_LENGTH
 70
     0
  0
APPID
  5
6FF
330
9
100
AcDbSymbolTableRecord
100
AcDbRegAppTableRecord
  2
ACAD_MLEADERVER
 70
     0
  0
ENDTAB
  0
TABLE
  2
DIMSTYLE
  5
A
330
0
100
AcDbSymbolTable
 70
     3
100
AcDbDimStyleTable
 71
     2
340
2B0
340
214
  0
DIMSTYLE
105
214
330
A
100
AcDbSymbolTableRecord
100
AcDbDimStyleTableRecord
  2
Standard
 70
     0
340
26
  0
DIMSTYLE
105
2B0
330
A
100
AcDbSymbolTableRecord
100
AcDbDimStyleTableRecord
  2
1：1
 70
     0
 41
2.5
 42
0.25
 43
0.2
 44
1.25
 73
     0
 74
     0
 77
     3
 78
     8
 79
     2
140
3.0
141
0.0
143
0.03937007874016
147
0.625
171
     3
172
     1
178
     4
179
     1
271
     2
272
     2
274
     3
283
     0
284
     8
288
     1
289
     0
340
26
341
226
342
226
1001
ACAD_DSTYLE_DIMARC_LENGTH_SYMBOL
1070
   379
1070
     2
1001
ACAD_DSTYLE_DIMEXT_LENGTH
1070
   378
1040
1.25
1001
ACAD_DSTYLE_DIMJOGGED_JOGANGLE_SYMBOL
1070
   384
1040
1.570796326794896
  0
ENDTAB
  0
TABLE
  2
BLOCK_RECORD
  5
1
330
0
100
AcDbSymbolTable
 70
     4
  0
BLOCK_RECORD
  5
36
102
{ACAD_XDICTIONARY
360
473
102
}
330
1
100
AcDbSymbolTableRecord
100
AcDbBlockTableRecord
  2
*Model_Space
340
39
  0
BLOCK_RECORD
  5
32
330
1
100
AcDbSymbolTableRecord
100
AcDbBlockTableRecord
  2
*Paper_Space
340
35
  0
BLOCK_RECORD
  5
226
330
1
100
AcDbSymbolTableRecord
100
AcDbBlockTableRecord
  2
_Open30
340
0
102
{BLKREFS
331
9AC
331
9AD
331
9B5
331
9B6
102
}
  0
BLOCK_RECORD
  5
549
330
1
100
AcDbSymbolTableRecord
100
AcDbBlockTableRecord
  2
*D1
340
0
  0
BLOCK_RECORD
  5
557
330
1
100
AcDbSymbolTableRecord
100
AcDbBlockTableRecord
  2
*D2
340
0
  0
ENDTAB
  0
ENDSEC
  0
SECTION
  2
BLOCKS
  0
BLOCK
  5
37
330
36
100
AcDbEntity
  8
0
100
AcDbBlockBegin
  2
*Model_Space
 70
     0
 10
0.0
 20
0.0
 30
0.0
  3
*Model_Space
  1

  0
ENDBLK
  5
38
330
36
100
AcDbEntity
  8
0
100
AcDbBlockEnd
  0
BLOCK
  5
33
330
32
100
AcDbEntity
 67
     1
  8
0
100
AcDbBlockBegin
  2
*Paper_Space
 70
     0
 10
0.0
 20
0.0
 30
0.0
  3
*Paper_Space
  1

  0
ENDBLK
  5
34
330
32
100
AcDbEntity
 67
     1
  8
0
100
AcDbBlockEnd
  0
BLOCK
  5
227
330
226
100
AcDbEntity
  8
0
100
AcDbBlockBegin
  2
_Open30
 70
     0
 10
0.0
 20
0.0
 30
0.0
  3
_Open30
  1

  0
LINE
  5
228
330
226
100
AcDbEntity
  8
0
  6
ByBlock
 62
     0
370
    -2
100
AcDbLine
 10
-1.0
 20
0.267949
 30
0.0
 11
0.0
 21
0.0
 31
0.0
  0
LINE
  5
229
330
226
100
AcDbEntity
  8
0
  6
ByBlock
 62
     0
370
    -2
100
AcDbLine
 10
0.0
 20
0.0
 30
0.0
 11
-1.0
 21
-0.267949
 31
0.0
  0
LINE
  5
22A
330
226
100
AcDbEntity
  8
0
  6
ByBlock
 62
     0
370
    -2
100
AcDbLine
 10
0.0
 20
0.0
 30
0.0
 11
-1.0
 21
0.0
 31
0.0
  0
ENDBLK
  5
22B
330
226
100
AcDbEntity
  8
0
100
AcDbBlockEnd
  0
BLOCK
  5
555
330
549
100
AcDbEntity
  8
0
100
AcDbBlockBegin
  2
*D1
 70
     1
 10
0.0
 20
0.0
 30
0.0
  3
*D1
  1

  0
LINE
  5
9A7
330
549
100
AcDbEntity
  8
0
 62
     0
370
    -2
100
AcDbLine
 10
52.19898023412906
 20
31.550773
 30
0.0
 11
34.24859870515504
 21
31.550773
 31
0.0
  0
LINE
  5
9A8
330
549
100
AcDbEntity
  8
0
 62
     0
370
    -2
100
AcDbLine
 10
52.19898023412906
 20
41.55077299999999
 30
0.0
 11
34.24859870515504
 21
41.550773
 31
0.0
  0
LINE
  5
9A9
330
549
100
AcDbEntity
  8
0
 62
     0
370
    -2
100
AcDbLine
 10
35.49859870515504
 20
29.050773
 30
0.0
 11
35.49859870515504
 21
26.550773
 31
0.0
  0
LINE
  5
9AA
330
549
100
AcDbEntity
  8
0
 62
     0
370
    -2
100
AcDbLine
 10
35.49859870515504
 20
44.050773
 30
0.0
 11
35.49859870515505
 21
54.300773
 31
0.0
  0
LINE
  5
9AB
330
549
100
AcDbEntity
  8
0
 62
     0
370
    -2
100
AcDbLine
 10
35.49859870515504
 20
31.550773
 30
0.0
 11
35.49859870515504
 21
41.550773
 31
0.0
  0
INSERT
  5
9AC
330
549
100
AcDbEntity
  8
0
 62
     0
370
    -2
100
AcDbBlockReference
  2
_Open30
 10
35.49859870515504
 20
31.550773
 30
0.0
 41
2.5
 42
2.5
 43
2.5
 50
90.0
  0
INSERT
  5
9AD
330
549
100
AcDbEntity
  8
0
 62
     0
370
    -2
100
AcDbBlockReference
  2
_Open30
 10
35.49859870515504
 20
41.550773
 30
0.0
 41
2.5
 42
2.5
 43
2.5
 50
270.0
  0
MTEXT
  5
9AE
330
549
100
AcDbEntity
  8
0
 62
     4
100
AcDbMText
 10
33.37359870515503
 20
50.42577300000001
 30
0.0
 40
3.0
 41
0.0
 71
     5
 72
     1
  1
\U+03C610
 11
0.0000000000000001
 21
1.0
 31
0.0
 73
     1
 44
1.0
1001
ACAD
1000
MTEXTBEGIN
1070
    73
1070
     1
1070
    44
1040
1.0
1070
    74
1070
     0
1000
MTEXTEND
  0
POINT
  5
9AF
330
549
100
AcDbEntity
  8
Defpoints
 62
     0
100
AcDbPoint
 10
52.44898023412907
 20
31.550773
 30
0.0
  0
POINT
  5
9B0
330
549
100
AcDbEntity
  8
Defpoints
 62
     0
100
AcDbPoint
 10
52.44898023412907
 20
41.55077299999999
 30
0.0
  0
POINT
  5
9B1
330
549
100
AcDbEntity
  8
Defpoints
 62
     0
100
AcDbPoint
 10
35.49859870515504
 20
41.550773
 30
0.0
  0
ENDBLK
  5
556
330
549
100
AcDbEntity
  8
0
100
AcDbBlockEnd
  0
BLOCK
  5
561
330
557
100
AcDbEntity
  8
0
100
AcDbBlockBegin
  2
*D2
 70
     1
 10
0.0
 20
0.0
 30
0.0
  3
*D2
  1

  0
LINE
  5
9B2
330
557
100
AcDbEntity
  8
0
 62
     0
370
    -2
100
AcDbLine
 10
-53.06737559920424
 20
32.550773
 30
0.0
 11
-53.06737559920424
 21
11.71609133333334
 31
0.0
  0
LINE
  5
9B3
330
557
100
AcDbEntity
  8
0
 62
     0
370
    -2
100
AcDbLine
 10
64.93262440079575
 20
32.550773
 30
0.0
 11
64.93262440079575
 21
11.71609133333334
 31
0.0
  0
LINE
  5
9B4
330
557
100
AcDbEntity
  8
0
 62
     0
370
    -2
100
AcDbLine
 10
-50.56737559920424
 20
12.96609133333334
 30
0.0
 11
62.43262440079575
 21
12.96609133333334
 31
0.0
  0
INSERT
  5
9B5
330
557
100
AcDbEntity
  8
0
 62
     0
370
    -2
100
AcDbBlockReference
  2
_Open30
 10
-53.06737559920424
 20
12.96609133333334
 30
0.0
 41
2.5
 42
2.5
 43
2.5
 50
180.0
  0
INSERT
  5
9B6
330
557
100
AcDbEntity
  8
0
 62
     0
370
    -2
100
AcDbBlockReference
  2
_Open30
 10
64.93262440079575
 20
12.96609133333334
 30
0.0
 41
2.5
 42
2.5
 43
2.5
  0
MTEXT
  5
9B7
330
557
100
AcDbEntity
  8
0
 62
     4
100
AcDbMText
 10
5.932624400795749
 20
15.09109133333334
 30
0.0
 40
3.0
 41
0.0
 71
     5
 72
     1
  1
118
 73
     1
 44
1.0
1001
ACAD
1000
MTEXTBEGIN
1070
    73
1070
     1
1070
    44
1040
1.0
1070
    74
1070
     0
1000
MTEXTEND
  0
POINT
  5
9B8
330
557
100
AcDbEntity
  8
Defpoints
 62
     0
100
AcDbPoint
 10
-53.06737559920424
 20
32.800773
 30
0.0
  0
POINT
  5
9B9
330
557
100
AcDbEntity
  8
Defpoints
 62
     0
100
AcDbPoint
 10
64.93262440079575
 20
32.800773
 30
0.0
  0
POINT
  5
9BA
330
557
100
AcDbEntity
  8
Defpoints
 62
     0
100
AcDbPoint
 10
64.93262440079575
 20
12.96609133333334
 30
0.0
  0
ENDBLK
  5
562
330
557
100
AcDbEntity
  8
0
100
AcDbBlockEnd
  0
ENDSEC
  0
SECTION
  2
ENTITIES
  0
LINE
  5
89
330
36
100
AcDbEntity
  8
0
 62
     3
100
AcDbLine
 10
-101.512073
 20
0.0
 30
0.0
 11
-102.0
 21
0.0
 31
0.0
  0
LINE
  5
162
330
36
100
AcDbEntity
  8
0
 62
     3
100
AcDbLine
 10
64.300636
 20
-121.834277
 30
0.0
 11
64.300636
 21
-98.83427699999998
 31
0.0
  0
LINE
  5
164
330
36
100
AcDbEntity
  8
0
 62
     3
100
AcDbLine
 10
11.247027
 20
-128.834277
 30
0.0
 11
11.247027
 21
-114.834277
 31
0.0
  0
TEXT
  5
166
330
36
100
AcDbEntity
  8
0
 62
     3
100
AcDbText
 10
40.31095399999997
 20
-102.629161
 30
0.0
 40
2.0
  1
A
 41
0.7
100
AcDbText
  0
TEXT
  5
167
330
36
100
AcDbEntity
  8
0
 62
     3
100
AcDbText
 10
42.846241
 20
-102.629161
 30
0.0
 40
2.0
  1
P
 41
0.7
100
AcDbText
  0
TEXT
  5
168
330
36
100
AcDbEntity
  8
0
 62
     3
100
AcDbText
 10
45.381527
 20
-102.629161
 30
0.0
 40
2.0
  1
P
 41
0.7
100
AcDbText
  0
TEXT
  5
169
330
36
100
AcDbEntity
  8
0
 62
     3
100
AcDbText
 10
47.91681299999999
 20
-102.629161
 30
0.0
 40
2.0
  1
D
 41
0.7
100
AcDbText
  0
TEXT
  5
16A
330
36
100
AcDbEntity
  8
0
 62
     3
100
AcDbText
 10
53.28549599999998
 20
-102.629161
 30
0.0
 40
2.0
  1
C
 41
0.7
100
AcDbText
  0
TEXT
  5
16B
330
36
100
AcDbEntity
  8
0
 62
     3
100
AcDbText
 10
55.82078199999997
 20
-102.629161
 30
0.0
 40
2.0
  1
H
 41
0.7
100
AcDbText
  0
TEXT
  5
16C
330
36
100
AcDbEntity
  8
0
 62
     3
100
AcDbText
 10
58.35606899999999
 20
-102.629161
 30
0.0
 40
2.0
  1
C
 41
0.7
100
AcDbText
  0
TEXT
  5
16D
330
36
100
AcDbEntity
  8
0
 62
     3
100
AcDbText
 10
60.89135500000001
 20
-102.629161
 30
0.0
 40
2.0
  1
K
 41
0.7
100
AcDbText
  0
TEXT
  5
16E
330
36
100
AcDbEntity
  8
0
 62
     3
100
AcDbText
 10
66.56532099999999
 20
-102.629161
 30
0.0
 40
2.0
  1
DESN
 41
1.216762999999998
100
AcDbText
  0
TEXT
  5
16F
330
36
100
AcDbEntity
  8
0
 62
     3
100
AcDbText
 10
-18.44103699999999
 20
-131.975659
 30
0.0
 40
2.0
  1
NICHIDO IND.CO.LTD
 41
1.274876
100
AcDbText
  0
LINE
  5
170
330
36
100
AcDbEntity
  8
0
 62
     3
100
AcDbLine
 10
-8.058008
 20
-98.83427699999998
 30
0.0
 11
-8.058007999999999
 21
-121.834277
 31
0.0
  0
LINE
  5
171
330
36
100
AcDbEntity
  8
0
 62
     3
100
AcDbLine
 10
38.30063600000001
 20
-98.83427699999998
 30
0.0
 11
38.30063600000001
 21
-138.5
 31
0.0
  0
LINE
  5
174
330
36
100
AcDbEntity
  8
0
 62
     3
100
AcDbLine
 10
51.30063599999998
 20
-98.83427699999998
 30
0.0
 11
51.30063599999999
 21
-128.834277
 31
0.0
  0
TEXT
  5
175
330
36
100
AcDbEntity
  8
0
 62
     3
100
AcDbText
 10
39.41308100000001
 20
-127.96959
 30
0.0
 40
3.2
  1
作成日
 41
1.017225999999997
100
AcDbText
  0
LINE
  5
176
330
36
100
AcDbEntity
  8
0
 62
     3
100
AcDbLine
 10
90.0
 20
-98.83427699999998
 30
0.0
 11
-21.303443
 21
-98.83427699999998
 31
0.0
  0
LINE
  5
177
330
36
100
AcDbEntity
  8
0
 62
     3
100
AcDbLine
 10
77.300636
 20
-121.834277
 30
0.0
 11
77.300636
 21
-98.83427699999998
 31
0.0
  0
TEXT
  5
178
330
36
100
AcDbEntity
  8
0
 62
     3
100
AcDbText
 10
80.62444000000002
 20
-102.543343
 30
0.0
 40
1.8
  1
D
 41
0.666667
100
AcDbText
  0
TEXT
  5
179
330
36
100
AcDbEntity
  8
0
 62
     3
100
AcDbText
 10
83.44106800000002
 20
-102.543343
 30
0.0
 40
1.8
  1
E
 41
0.666667
100
AcDbText
  0
TEXT
  5
17A
330
36
100
AcDbEntity
  8
0
 62
     3
100
AcDbText
 10
86.25769599999998
 20
-102.543343
 30
0.0
 40
1.8
  1
F
 41
0.666667
100
AcDbText
  0
TEXT
  5
17B
330
36
100
AcDbEntity
  8
0
 62
     3
100
AcDbText
 10
80.62444000000002
 20
-106.5358959999999
 30
0.0
 40
3.2
  1
製図
 41
1.076369
100
AcDbText
  0
LINE
  5
17C
330
36
100
AcDbEntity
  8
0
 62
     3
100
AcDbLine
 10
-21.303443
 20
-98.83427699999998
 30
0.0
 11
-21.303443
 21
-138.5
 31
0.0
  0
TEXT
  5
17D
330
36
100
AcDbEntity
  8
0
 62
     3
100
AcDbText
 10
-19.92679
 20
-138.167534
 30
0.0
 40
5.0
  1
日動工業株式会社
 41
0.833333
100
AcDbText
  0
LINE
  5
17E
330
36
100
AcDbEntity
  8
0
 62
     3
100
AcDbLine
 10
21.578961
 20
-114.834277
 30
0.0
 11
21.578961
 21
-138.5
 31
0.0
  0
LINE
  5
17F
330
36
100
AcDbEntity
  8
0
 62
     3
100
AcDbLine
 10
21.578961
 20
-133.6671379999999
 30
0.0
 11
38.30063600000001
 21
-133.6671379999999
 31
0.0
  0
TEXT
  5
180
330
36
100
AcDbEntity
  8
0
 62
     3
100
AcDbText
 10
22.165563
 20
-132.850708
 30
0.0
 40
3.2
  1
出図コード
 41
0.8356860000000001
100
AcDbText
  0
LINE
  5
182
330
36
100
AcDbEntity
  8
0
 62
     3
100
AcDbLine
 10
-21.303443
 20
-128.834277
 30
0.0
 11
90.0
 21
-128.834277
 31
0.0
  0
LINE
  5
184
330
36
100
AcDbEntity
  8
0
 62
     3
100
AcDbLine
 10
-21.303443
 20
-107.834277
 30
0.0
 11
90.0
 21
-107.834277
 31
0.0
  0
LINE
  5
18A
330
36
100
AcDbEntity
  8
0
 62
     3
100
AcDbLine
 10
-21.303443
 20
-114.834277
 30
0.0
 11
38.30063600000001
 21
-114.834277
 31
0.0
  0
LINE
  5
190
330
36
100
AcDbEntity
  8
0
 62
     3
100
AcDbLine
 10
-21.303443
 20
-121.834277
 30
0.0
 11
90.0
 21
-121.834277
 31
0.0
  0
TEXT
  5
191
330
36
100
AcDbEntity
  8
0
 62
     3
100
AcDbText
 10
22.033015
 20
-137.897805
 30
0.0
 40
3.2
  1
ZK-A4Y
 41
0.8112849999999999
100
AcDbText
  0
LINE
  5
192
330
36
100
AcDbEntity
  8
0
 62
     3
100
AcDbLine
 10
-90.0
 20
138.5
 30
0.0
 11
-90.0
 21
-138.5
 31
0.0
  0
LINE
  5
193
330
36
100
AcDbEntity
  8
0
 62
     3
100
AcDbLine
 10
90.0
 20
-138.5
 30
0.0
 11
90.0
 21
138.5
 31
0.0
  0
LINE
  5
194
330
36
100
AcDbEntity
  8
0
 62
     3
100
AcDbLine
 10
90.0
 20
-138.5
 30
0.0
 11
-90.0
 21
-138.5
 31
0.0
  0
TEXT
  5
199
330
36
100
AcDbEntity
  8
0
 62
     3
100
AcDbText
 10
-19.486046
 20
-102.664751
 30
0.0
 40
2.0
  1
CONPONENTS
 41
0.5331600000000001
100
AcDbText
  0
TEXT
  5
19A
330
36
100
AcDbEntity
  8
0
 62
     3
100
AcDbText
 10
-19.835772
 20
-121.596928
 30
0.0
 40
3.0
  1
材
 41
0.833333
100
AcDbText
  0
TEXT
  5
19B
330
36
100
AcDbEntity
  8
0
 62
     3
100
AcDbText
 10
-12.30013
 20
-121.596928
 30
0.0
 40
3.0
  1
質
 41
0.833333
100
AcDbText
  0
TEXT
  5
19C
330
36
100
AcDbEntity
  8
0
 62
     3
100
AcDbText
 10
-19.747702
 20
-110.972404
 30
0.0
 40
2.0
  1
MODEL
 41
1.031072999999999
100
AcDbText
  0
TEXT
  5
19D
330
36
100
AcDbEntity
  8
0
 62
     3
100
AcDbText
 10
-19.835772
 20
-117.91462
 30
0.0
 40
2.0
  1
MATERIAL
 41
0.659278
100
AcDbText
  0
TEXT
  5
19E
330
36
100
AcDbEntity
  8
0
 62
     3
100
AcDbText
 10
11.471508
 20
-121.596928
 30
0.0
 40
3.0
  1
備
 41
0.833333
100
AcDbText
  0
TEXT
  5
19F
330
36
100
AcDbEntity
  8
0
 62
     3
100
AcDbText
 10
18.20451
 20
-121.596928
 30
0.0
 40
3.0
  1
考
 41
0.833333
100
AcDbText
  0
TEXT
  5
1A0
330
36
100
AcDbEntity
  8
0
 62
     3
100
AcDbText
 10
11.85515976406463
 20
-117.91462
 30
0.0
 40
2.0
  1
REMARKS
 41
0.675794
100
AcDbText
  0
TEXT
  5
1A1
330
36
100
AcDbEntity
  8
0
 62
     3
100
AcDbText
 10
-18.246043
 20
-124.834741
 30
0.0
 40
2.0
  1
3AD
 41
1.42614
100
AcDbText
  0
TEXT
  5
1A2
330
36
100
AcDbEntity
  8
0
 62
     3
100
AcDbText
 10
-8.935064
 20
-124.669007
 30
0.0
 40
2.0
  1
ANGLE
 41
1.669883999999995
100
AcDbText
  0
TEXT
  5
1A3
330
36
100
AcDbEntity
  8
0
 62
     3
100
AcDbText
 10
11.998823
 20
-125.045848
 30
0.0
 40
2.0
  1
SCALE
 41
0.7719630000000001
100
AcDbText
  0
TEXT
  5
1A4
330
36
100
AcDbEntity
  8
0
 62
     3
100
AcDbText
 10
-18.559914
 20
-128.834277
 30
0.0
 40
3.0
  1
第
 41
0.833333
100
AcDbText
  0
TEXT
  5
1A5
330
36
100
AcDbEntity
  8
0
 62
     3
100
AcDbText
 10
-10.773064
 20
-128.834277
 30
0.0
 40
3.0
  1
三
 41
0.833333
100
AcDbText
  0
TEXT
  5
1A6
330
36
100
AcDbEntity
  8
0
 62
     3
100
AcDbText
 10
-2.986214
 20
-128.834277
 30
0.0
 40
3.0
  1
角
 41
0.833333
100
AcDbText
  0
TEXT
  5
1A7
330
36
100
AcDbEntity
  8
0
 62
     3
100
AcDbText
 10
4.800635999999999
 20
-128.834277
 30
0.0
 40
3.0
  1
法
 41
0.833333
100
AcDbText
  0
TEXT
  5
1A8
330
36
100
AcDbEntity
  8
0
 62
     3
100
AcDbText
 10
11.862028
 20
-128.5458479999999
 30
0.0
 40
3.0
  1
尺
 41
0.833333
100
AcDbText
  0
TEXT
  5
1A9
330
36
100
AcDbEntity
  8
0
 62
     3
100
AcDbText
 10
18.59503
 20
-128.5458479999999
 30
0.0
 40
3.0
  1
度
 41
0.833333
100
AcDbText
  0
TEXT
  5
1AA
330
36
100
AcDbEntity
  8
0
 62
     3
100
AcDbText
 10
41.17830099999997
 20
-106.376548
 30
0.0
 40
3.0
  1
承認
 41
1.089472999999999
100
AcDbText
  0
TEXT
  5
1AB
330
36
100
AcDbEntity
  8
0
 62
     3
100
AcDbText
 10
54.42118099999999
 20
-106.434277
 30
0.0
 40
3.0
  1
検図
 41
0.931761
100
AcDbText
  0
TEXT
  5
1AC
330
36
100
AcDbEntity
  8
0
 62
     3
100
AcDbText
 10
67.42157800000001
 20
-106.434277
 30
0.0
 40
3.0
  1
設
 41
0.833333
100
AcDbText
  0
TEXT
  5
1AD
330
36
100
AcDbEntity
  8
0
 62
     3
100
AcDbText
 10
71.911446
 20
-106.434277
 30
0.0
 40
3.0
  1
計
 41
0.833333
100
AcDbText
  0
TEXT
  5
1AE
330
36
100
AcDbEntity
  8
0
 62
     3
100
AcDbText
 10
-19.554574
 20
-107.145521
 30
0.0
 40
3.0
  1
品
 41
0.833333
100
AcDbText
  0
TEXT
  5
1AF
330
36
100
AcDbEntity
  8
0
 62
     3
100
AcDbText
 10
-12.018932
 20
-107.145521
 30
0.0
 40
3.0
  1
名
 41
0.833333
100
AcDbText
  0
TEXT
  5
1B0
330
36
100
AcDbEntity
  8
0
 62
     3
100
AcDbText
 10
-19.747702
 20
-114.604664
 30
0.0
 40
3.0
  1
型
 41
0.833333
100
AcDbText
  0
TEXT
  5
1B1
330
36
100
AcDbEntity
  8
0
 62
     3
100
AcDbText
 10
-12.199611
 20
-114.604664
 30
0.0
 40
3.0
  1
式
 41
0.833333
100
AcDbText
  0
TEXT
  5
1BB
330
36
100
AcDbEntity
  8
0
 62
     3
100
AcDbText
 10
54.79661644528578
 20
-128.4102412556565
 30
0.0
 40
3.2
  1
2009.11.6
  7
高3.2
100
AcDbText
  0
TEXT
  5
1BC
330
36
100
AcDbEntity
  8
0
 62
     3
100
AcDbText
 10
24.76137003320361
 20
-128.4881562057711
 30
0.0
 40
3.2
  1
FREE
  7
高3.2
100
AcDbText
  0
TEXT
  5
1BD
330
36
100
AcDbEntity
  8
0
 62
     3
100
AcDbText
 10
-3.711194999999998
 20
-106.772379
 30
0.0
 40
4.5
  1
耐震ハロゲン球
  7
高4.5
100
AcDbText
  0
LINE
  5
1E9
330
36
100
AcDbEntity
  8
0
 62
     3
100
AcDbLine
 10
-19.688209
 20
-29.95719107132842
 30
0.0
 11
69.652858
 21
-29.95719107132842
 31
0.0
  0
LINE
  5
1EA
330
36
100
AcDbEntity
  8
0
 62
     3
100
AcDbLine
 10
-19.688209
 20
-29.95719107132842
 30
0.0
 11
-19.688209
 21
-78.95719107132842
 31
0.0
  0
LINE
  5
1EB
330
36
100
AcDbEntity
  8
0
 62
     3
100
AcDbLine
 10
-19.688209
 20
-78.95719107132842
 30
0.0
 11
69.652858
 21
-78.95719107132842
 31
0.0
  0
TEXT
  5
1EC
330
36
100
AcDbEntity
  8
0
 62
     3
100
AcDbText
 10
-18.767797
 20
-35.95719107132842
 30
0.0
 40
4.5
  1
定　　　格
  7
高4.5
100
AcDbText
  0
TEXT
  5
1EE
330
36
100
AcDbEntity
  8
0
 62
     3
100
AcDbText
 10
-18.767797
 20
-42.95719107132842
 30
0.0
 40
4.5
  1
消費　電力
  7
高4.5
100
AcDbText
  0
TEXT
  5
1EF
330
36
100
AcDbEntity
  8
0
 62
     3
100
AcDbText
 10
-18.767797
 20
-49.95719107132842
 30
0.0
 40
4.5
  1
定格　光束
  7
高4.5
100
AcDbText
  0
TEXT
  5
1F2
330
36
100
AcDbEntity
  8
0
 62
     3
100
AcDbText
 10
-18.767797
 20
-56.95719107132842
 30
0.0
 40
4.5
  1
口　　　金
  7
高4.5
100
AcDbText
  0
TEXT
  5
1F4
330
36
100
AcDbEntity
  8
0
 62
     3
100
AcDbText
 10
-18.86733
 20
-77.81139807132842
 30
0.0
 40
4.5
  1
質　　　量
  7
高4.5
100
AcDbText
  0
TEXT
  5
1F6
330
36
100
AcDbEntity
  8
0
 62
     3
100
AcDbText
 10
-18.767797
 20
-70.95719107132842
 30
0.0
 40
4.5
  1
点灯の向き
  7
高4.5
100
AcDbText
  0
TEXT
  5
1F7
330
36
100
AcDbEntity
  8
0
 62
     3
100
AcDbText
 10
-0.5396800000000001
 20
-27.08748987379284
 30
0.0
 40
4.5
  1
主　　　仕　　　様
  7
高4.5
100
AcDbText
  0
LINE
  5
1F8
330
36
100
AcDbEntity
  8
0
 62
     7
100
AcDbLine
 10
-19.688209
 20
-36.95719107132843
 30
0.0
 11
69.652858
 21
-36.95719107132843
 31
0.0
  0
LINE
  5
1F9
330
36
100
AcDbEntity
  8
0
 62
     7
100
AcDbLine
 10
-19.688209
 20
-43.95719107132842
 30
0.0
 11
69.652858
 21
-43.95719107132842
 31
0.0
  0
LINE
  5
1FA
330
36
100
AcDbEntity
  8
0
 62
     7
100
AcDbLine
 10
-19.688209
 20
-50.95719107132842
 30
0.0
 11
69.652858
 21
-50.95719107132842
 31
0.0
  0
LINE
  5
1FB
330
36
100
AcDbEntity
  8
0
 62
     7
100
AcDbLine
 10
-19.688209
 20
-57.95719107132843
 30
0.0
 11
69.652858
 21
-57.95719107132843
 31
0.0
  0
LINE
  5
1FC
330
36
100
AcDbEntity
  8
0
 62
     7
100
AcDbLine
 10
-19.688209
 20
-71.95719107132842
 30
0.0
 11
69.652858
 21
-71.95719107132842
 31
0.0
  0
LINE
  5
1FD
330
36
100
AcDbEntity
  8
0
 62
     7
100
AcDbLine
 10
9.194620344233042
 20
-29.95719107132842
 30
0.0
 11
9.194620344233042
 21
-78.95719107132842
 31
0.0
  0
TEXT
  5
1FE
330
36
100
AcDbEntity
  8
0
 62
     3
100
AcDbText
 10
31.05720214321359
 20
-35.85086607132843
 30
0.0
 40
4.5
  1
110V
  7
高4.5
100
AcDbText
  0
TEXT
  5
1FF
330
36
100
AcDbEntity
  8
0
 62
     3
100
AcDbText
 10
32.21135186225858
 20
-56.67822607132841
 30
0.0
 40
4.5
  1
R7s
  7
高4.5
100
AcDbText
  0
TEXT
  5
200
330
36
100
AcDbEntity
  8
0
 62
     3
100
AcDbText
 10
25.39756075239416
 20
-70.79517107132843
 30
0.0
 40
4.5
  1
水平 %%P4%%D
  7
高4.5
100
AcDbText
  0
LINE
  5
203
330
36
100
AcDbEntity
  8
0
 62
     3
100
AcDbLine
 10
69.652858
 20
-29.95719107132842
 30
0.0
 11
69.652858
 21
-78.95719107132842
 31
0.0
  0
TEXT
  5
204
330
36
100
AcDbEntity
  8
0
 62
     3
100
AcDbText
 10
30.03003743479188
 20
-42.63315107132842
 30
0.0
 40
4.5
  1
415W
  7
高4.5
100
AcDbText
  0
TEXT
  5
205
330
36
100
AcDbEntity
  8
0
 62
     3
100
AcDbText
 10
24.75017363135734
 20
-49.79874007132842
 30
0.0
 40
4.5
  1
10,000Lm
  7
高4.5
100
AcDbText
  0
TEXT
  5
206
330
36
100
AcDbEntity
  8
0
 62
     3
100
AcDbText
 10
32.10743474512901
 20
-77.2826520713284
 30
0.0
 40
4.5
  1
9g
  7
高4.5
100
AcDbText
  0
LINE
  5
208
330
36
100
AcDbEntity
  8
0
 62
     3
100
AcDbLine
 10
38.30063600000001
 20
-91.83427700000001
 30
0.0
 11
90.04293500000001
 21
-91.83427700000001
 31
0.0
  0
LINE
  5
20B
330
36
100
AcDbEntity
  8
0
 62
     3
100
AcDbLine
 10
64.300636
 20
-98.83427699999998
 30
0.0
 11
64.300636
 21
-91.83427700000001
 31
0.0
  0
LINE
  5
20D
330
36
100
AcDbEntity
  8
0
 62
     3
100
AcDbLine
 10
38.30063600000001
 20
-98.83427699999998
 30
0.0
 11
38.30063600000001
 21
-91.83427700000001
 31
0.0
  0
TEXT
  5
20F
330
36
100
AcDbEntity
  8
0
 62
     3
100
AcDbText
 10
43.81000059270724
 20
-98.20890233095273
 30
0.0
 40
4.5
  1
コード
  7
高4.5
100
AcDbText
  0
TEXT
  5
210
330
36
100
AcDbEntity
  8
0
 62
     3
100
AcDbText
 10
68.95585412117888
 20
-97.69745100000001
 30
0.0
 40
4.5
  1
6843
  7
高4.5
100
AcDbText
  0
LINE
  5
211
330
36
100
AcDbEntity
  8
0
 62
     7
100
AcDbLine
 10
-0.5396800000000001
 20
-27.97840307132843
 30
0.0
 11
47.11122322496794
 21
-27.97840307132843
 31
0.0
  0
TEXT
  5
212
330
36
100
AcDbEntity
  8
0
 62
     3
100
AcDbText
 10
-5.057135988588868
 20
-114.0199949999999
 30
0.0
 40
4.5
  1
H500W-S-110V
 41
0.8
  7
高4.5
100
AcDbText
  0
TEXT
  5
213
330
36
100
AcDbEntity
  8
0
 62
     3
100
AcDbText
 10
42.84544961327907
 20
-137.6954107228733
 30
0.0
 40
6.299999999999998
  1
H500W-S-110V
 41
0.6
  7
高6.3
100
AcDbText
  0
LINE
  5
52B
330
36
100
AcDbEntity
  8
0
 62
     3
100
AcDbLine
 10
-40.58373226587092
 20
31.550773
 30
0.0
 11
52.44898023412907
 21
31.550773
 31
0.0
  0
LINE
  5
52C
330
36
100
AcDbEntity
  8
0
 62
     3
100
AcDbLine
 10
-40.58373226587092
 20
41.55077299999999
 30
0.0
 11
52.44898023412907
 21
41.55077299999999
 31
0.0
  0
ARC
  5
52D
330
36
100
AcDbEntity
  8
0
 62
     3
100
AcDbCircle
 10
-40.58373226587092
 20
36.550773
 30
0.0
 40
4.999999999999998
100
AcDbArc
 50
90.0
 51
270.0
  0
LINE
  5
52E
330
36
100
AcDbEntity
  8
0
 62
     3
100
AcDbLine
 10
-49.02603476587096
 20
42.62585299999999
 30
0.0
 11
-49.02603476587096
 21
30.475693
 31
0.0
  0
LINE
  5
52F
330
36
100
AcDbEntity
  8
0
 62
     3
100
AcDbLine
 10
-49.02603476587096
 20
42.62585299999999
 30
0.0
 11
-46.70687893253761
 21
42.62585299999999
 31
0.0
  0
ARC
  5
530
330
36
100
AcDbEntity
  8
0
 62
     3
100
AcDbCircle
 10
-46.70687893253761
 20
24.65104800000001
 30
0.0
 40
17.97480499999999
100
AcDbArc
 50
70.08342200000067
 51
90.0
  0
ARC
  5
531
330
36
100
AcDbEntity
  8
0
 62
     3
100
AcDbCircle
 10
-46.70687893253761
 20
48.45049799999999
 30
0.0
 40
17.97480499999999
100
AcDbArc
 50
270.0
 51
289.9165779999994
  0
LINE
  5
532
330
36
100
AcDbEntity
  8
0
 62
     3
100
AcDbLine
 10
-49.02603476587096
 20
30.475693
 30
0.0
 11
-46.70687893253761
 21
30.475693
 31
0.0
  0
LINE
  5
533
330
36
100
AcDbEntity
  8
0
 62
     3
100
AcDbLine
 10
-53.06737559920424
 20
40.300773
 30
0.0
 11
-46.90014143253757
 21
40.300773
 31
0.0
  0
LINE
  5
534
330
36
100
AcDbEntity
  8
0
 62
     3
100
AcDbLine
 10
-53.06737559920424
 20
32.80077300000001
 30
0.0
 11
-46.90014143253757
 21
32.800773
 31
0.0
  0
LINE
  5
535
330
36
100
AcDbEntity
  8
0
 62
     3
100
AcDbLine
 10
-46.90014143253757
 20
40.300773
 30
0.0
 11
-46.90014143253757
 21
32.800773
 31
0.0
  0
LINE
  5
536
330
36
100
AcDbEntity
  8
0
 62
     3
100
AcDbLine
 10
5.932624400795758
 20
45.05077299999999
 30
0.0
 11
7.800541067462461
 21
41.55077299999999
 31
0.0
  0
LINE
  5
537
330
36
100
AcDbEntity
  8
0
 62
     3
100
AcDbLine
 10
5.932624400795758
 20
45.05077299999999
 30
0.0
 11
4.064706900795783
 21
41.55077299999999
 31
0.0
  0
ARC
  5
538
330
36
100
AcDbEntity
  8
0
 62
     3
100
AcDbCircle
 10
52.44898023412907
 20
36.550773
 30
0.0
 40
4.999999999999998
100
AcDbArc
 50
270.0
 51
90.0
  0
ARC
  5
539
330
36
100
AcDbEntity
  8
0
 62
     3
100
AcDbCircle
 10
58.57212690079576
 20
24.65104800000001
 30
0.0
 40
17.97480499999999
100
AcDbArc
 50
90.0
 51
109.9165779999993
  0
LINE
  5
53A
330
36
100
AcDbEntity
  8
0
 62
     3
100
AcDbLine
 10
60.8912827341291
 20
42.62585299999999
 30
0.0
 11
58.57212690079576
 21
42.62585299999999
 31
0.0
  0
LINE
  5
53B
330
36
100
AcDbEntity
  8
0
 62
     3
100
AcDbLine
 10
64.93262440079575
 20
40.300773
 30
0.0
 11
58.76538940079576
 21
40.300773
 31
0.0
  0
LINE
  5
53C
330
36
100
AcDbEntity
  8
0
 62
     3
100
AcDbLine
 10
58.76538940079576
 20
40.300773
 30
0.0
 11
58.76538940079576
 21
32.800773
 31
0.0
  0
LINE
  5
53D
330
36
100
AcDbEntity
  8
0
 62
     3
100
AcDbLine
 10
60.8912827341291
 20
42.62585299999999
 30
0.0
 11
60.8912827341291
 21
30.475693
 31
0.0
  0
LINE
  5
53E
330
36
100
AcDbEntity
  8
0
 62
     3
100
AcDbLine
 10
64.93262440079575
 20
40.300773
 30
0.0
 11
64.93262440079575
 21
32.800773
 31
0.0
  0
LINE
  5
53F
330
36
100
AcDbEntity
  8
0
 62
     3
100
AcDbLine
 10
64.93262440079575
 20
32.800773
 30
0.0
 11
58.76538940079576
 21
32.800773
 31
0.0
  0
LINE
  5
540
330
36
100
AcDbEntity
  8
0
 62
     3
100
AcDbLine
 10
60.8912827341291
 20
30.475693
 30
0.0
 11
58.57212690079576
 21
30.475693
 31
0.0
  0
ARC
  5
541
330
36
100
AcDbEntity
  8
0
 62
     3
100
AcDbCircle
 10
58.57212690079576
 20
48.45049799999999
 30
0.0
 40
17.97480499999999
100
AcDbArc
 50
250.0834220000006
 51
270.0
  0
LINE
  5
542
330
36
100
AcDbEntity
  8
0
  6
CENTER
 62
     7
100
AcDbLine
 10
-55.18683309920424
 20
36.550773
 30
0.0
 11
67.50231690079579
 21
36.550773
 31
0.0
  0
LINE
  5
543
330
36
100
AcDbEntity
  8
0
  6
DASHED
 62
     7
100
AcDbLine
 10
14.13180273412911
 20
39.73903633333333
 30
0.0
 11
14.13180273412911
 21
33.36250883333334
 31
0.0
  0
LINE
  5
544
330
36
100
AcDbEntity
  8
0
  6
DASHED
 62
     7
100
AcDbLine
 10
13.71513606746248
 20
39.73903633333333
 30
0.0
 11
13.71513606746248
 21
33.36250883333334
 31
0.0
  0
LINE
  5
545
330
36
100
AcDbEntity
  8
0
  6
DASHED
 62
     7
100
AcDbLine
 10
6.190811067462446
 20
39.73903633333333
 30
0.0
 11
6.190811067462446
 21
33.36250883333334
 31
0.0
  0
LINE
  5
546
330
36
100
AcDbEntity
  8
0
  6
DASHED
 62
     7
100
AcDbLine
 10
5.774144400795762
 20
39.73903633333333
 30
0.0
 11
5.774144400795762
 21
33.36250883333334
 31
0.0
  0
LINE
  5
547
330
36
100
AcDbEntity
  8
0
  6
DASHED
 62
     7
100
AcDbLine
 10
-2.266553932537588
 20
39.73903633333333
 30
0.0
 11
-2.266553932537588
 21
33.36250883333334
 31
0.0
  0
LINE
  5
548
330
36
100
AcDbEntity
  8
0
  6
DASHED
 62
     7
100
AcDbLine
 10
-1.849887265870903
 20
39.73903633333333
 30
0.0
 11
-1.849887265870903
 21
33.36250883333334
 31
0.0
  0
LINE
  5
577
330
36
100
AcDbEntity
  8
0
 62
     3
100
AcDbLine
 10
-53.06737559920424
 20
40.300773
 30
0.0
 11
-53.06737559920424
 21
32.800773
 31
0.0
  0
TEXT
  5
58A
330
36
100
AcDbEntity
  8
0
 62
     3
100
AcDbText
 10
-18.767797
 20
-63.95719107132842
 30
0.0
 40
4.5
  1
色　温　度
  7
高4.5
100
AcDbText
  0
LINE
  5
58B
330
36
100
AcDbEntity
  8
0
 62
     7
100
AcDbLine
 10
-19.688209
 20
-64.95719107132842
 30
0.0
 11
69.652858
 21
-64.95719107132842
 31
0.0
  0
TEXT
  5
58C
330
36
100
AcDbEntity
  8
0
 62
     3
100
AcDbText
 10
27.84153228484957
 20
-63.67822607132842
 30
0.0
 40
4.5
  1
2900K
  7
高4.5
100
AcDbText
  0
LINE
  5
64B
330
36
100
AcDbEntity
  8
0
  6
DASHED
 62
     7
100
AcDbLine
 10
22.07279440079577
 20
39.73903633333333
 30
0.0
 11
22.07279440079577
 21
33.36250883333334
 31
0.0
  0
LINE
  5
64C
330
36
100
AcDbEntity
  8
0
  6
DASHED
 62
     7
100
AcDbLine
 10
21.65612773412914
 20
39.73903633333333
 30
0.0
 11
21.65612773412914
 21
33.36250883333334
 31
0.0
  0
LINE
  5
64D
330
36
100
AcDbEntity
  8
0
  6
DASHED
 62
     7
100
AcDbLine
 10
-10.30725226587094
 20
39.73903633333333
 30
0.0
 11
-10.30725226587094
 21
33.36250883333334
 31
0.0
  0
LINE
  5
64E
330
36
100
AcDbEntity
  8
0
  6
DASHED
 62
     7
100
AcDbLine
 10
-9.890585599204252
 20
39.73903633333333
 30
0.0
 11
-9.890585599204252
 21
33.36250883333334
 31
0.0
  0
LINE
  5
838
330
36
100
AcDbEntity
  8
0
 62
     3
100
AcDbLine
 10
-52.91564798000013
 20
140.2874440999999
 30
0.0
 11
-52.47990006999998
 21
140.0599759599999
 31
0.0
  0
LINE
  5
839
330
36
100
AcDbEntity
  8
0
 62
     3
100
AcDbLine
 10
-52.91564798000013
 20
136.55681362
 30
0.0
 11
-52.47990006999998
 21
136.78428176
 31
0.0
  0
LINE
  5
83A
330
36
100
AcDbEntity
  8
0
 62
     3
100
AcDbLine
 10
-52.47990006999998
 20
140.0599759599999
 30
0.0
 11
-52.47990006999998
 21
136.78428176
 31
0.0
  0
LINE
  5
83B
330
36
100
AcDbEntity
  8
0
 62
     3
100
AcDbLine
 10
-51.3763826500001
 20
136.55681362
 30
0.0
 11
-51.81213056000024
 21
136.78428176
 31
0.0
  0
LINE
  5
83C
330
36
100
AcDbEntity
  8
0
 62
     3
100
AcDbLine
 10
-51.81213056000024
 20
138.78114057
 30
0.0
 11
-51.81213056000024
 21
136.78428176
 31
0.0
  0
LINE
  5
83D
330
36
100
AcDbEntity
  8
0
 62
     3
100
AcDbLine
 10
-48.83451987000011
 20
140.2874440999999
 30
0.0
 11
-49.27026778000004
 21
140.0599759599999
 31
0.0
  0
LINE
  5
83E
330
36
100
AcDbEntity
  8
0
 62
     3
100
AcDbLine
 10
-50.37378520000014
 20
140.2874440999999
 30
0.0
 11
-49.93803729000001
 21
140.0599759599999
 31
0.0
  0
LINE
  5
83F
330
36
100
AcDbEntity
  8
0
 62
     3
100
AcDbLine
 10
-49.93803729000001
 20
140.0599759599999
 30
0.0
 11
-49.93803729000001
 21
138.6176389
 31
0.0
  0
LINE
  5
840
330
36
100
AcDbEntity
  8
0
 62
     3
100
AcDbLine
 10
-49.27026778000004
 20
140.0599759599999
 30
0.0
 11
-49.27026778000004
 21
136.34525248
 31
0.0
  0
LINE
  5
841
330
36
100
AcDbEntity
  8
0
 62
     3
100
AcDbLine
 10
-48.61922267
 20
140.28744147
 30
0.0
 11
-48.18347633000008
 21
140.05997033
 31
0.0
  0
LINE
  5
842
330
36
100
AcDbEntity
  8
0
 62
     3
100
AcDbLine
 10
-48.6193006400001
 20
136.5568636
 30
0.0
 11
-48.18354479000003
 21
136.78431652
 31
0.0
  0
LINE
  5
843
330
36
100
AcDbEntity
  8
0
 62
     3
100
AcDbLine
 10
-48.18347633000008
 20
140.05997033
 30
0.0
 11
-48.18347633000008
 21
136.78431652
 31
0.0
  0
LINE
  5
844
330
36
100
AcDbEntity
  8
0
 62
     3
100
AcDbLine
 10
-46.68968627000004
 20
140.2874177999999
 30
0.0
 11
-47.12543735999997
 21
140.05995577
 31
0.0
  0
LINE
  5
845
330
36
100
AcDbEntity
  8
0
 62
     3
100
AcDbLine
 10
-47.12543735999997
 20
140.05995577
 30
0.0
 11
-47.12543735999997
 21
136.78430195
 31
0.0
  0
LINE
  5
846
330
36
100
AcDbEntity
  8
0
 62
     3
100
AcDbLine
 10
-46.68968627000004
 20
136.55683992
 30
0.0
 11
-47.12543735999997
 21
136.78430195
 31
0.0
  0
LINE
  5
847
330
36
100
AcDbEntity
  8
0
 62
     3
100
AcDbLine
 10
-42.99943283000015
 20
140.2873768
 30
0.0
 11
-42.56368571000007
 21
140.0599071599999
 31
0.0
  0
LINE
  5
848
330
36
100
AcDbEntity
  8
0
 62
     3
100
AcDbLine
 10
-42.56368571000007
 20
140.0599071599999
 30
0.0
 11
-42.56374288000006
 21
136.7842533499999
 31
0.0
  0
LINE
  5
849
330
36
100
AcDbEntity
  8
0
 62
     3
100
AcDbLine
 10
-42.99949794000006
 20
136.55679892
 30
0.0
 11
-42.56374288000006
 21
136.7842533499999
 31
0.0
  0
LINE
  5
84A
330
36
100
AcDbEntity
  8
0
 62
     3
100
AcDbLine
 10
-41.04717187000003
 20
140.2873768
 30
0.0
 11
-41.48291899000013
 21
140.0599071599999
 31
0.0
  0
LINE
  5
84B
330
36
100
AcDbEntity
  8
0
 62
     3
100
AcDbLine
 10
-41.04710676000013
 20
136.55679892
 30
0.0
 11
-41.48286182000013
 21
136.7842533499999
 31
0.0
  0
LINE
  5
84C
330
36
100
AcDbEntity
  8
0
 62
     3
100
AcDbLine
 10
-40.84344400999998
 20
140.2873768
 30
0.0
 11
-40.40769688
 21
140.0599071599999
 31
0.0
  0
LINE
  5
84D
330
36
100
AcDbEntity
  8
0
 62
     3
100
AcDbLine
 10
-40.84350912000013
 20
136.55679892
 30
0.0
 11
-40.40775406000011
 21
136.7842533499999
 31
0.0
  0
LINE
  5
84E
330
36
100
AcDbEntity
  8
0
 62
     3
100
AcDbLine
 10
-38.89118304000021
 20
140.2873768
 30
0.0
 11
-39.32693016000007
 21
140.0599071599999
 31
0.0
  0
LINE
  5
84F
330
36
100
AcDbEntity
  8
0
 62
     3
100
AcDbLine
 10
-39.32693016000007
 20
140.0599071599999
 30
0.0
 11
-39.32687299000008
 21
136.7842533499999
 31
0.0
  0
LINE
  5
850
330
36
100
AcDbEntity
  8
0
 62
     3
100
AcDbLine
 10
-38.89111793000007
 20
136.55679892
 30
0.0
 11
-39.32687299000008
 21
136.7842533499999
 31
0.0
  0
LINE
  5
851
330
36
100
AcDbEntity
  8
0
 62
     3
100
AcDbLine
 10
-40.40772179000009
 20
138.6327740399999
 30
0.0
 11
-41.48289408000005
 21
138.6327740399999
 31
0.0
  0
LINE
  5
852
330
36
100
AcDbEntity
  8
0
 62
     3
100
AcDbLine
 10
-40.40772915000025
 20
138.21148368
 30
0.0
 11
-41.48288673000024
 21
138.21148368
 31
0.0
  0
LINE
  5
853
330
36
100
AcDbEntity
  8
0
 62
     3
100
AcDbLine
 10
-40.40769688
 20
140.0599071599999
 30
0.0
 11
-40.40772179000009
 21
138.6327740399999
 31
0.0
  0
LINE
  5
854
330
36
100
AcDbEntity
  8
0
 62
     3
100
AcDbLine
 10
-40.40772915000025
 20
138.21148368
 30
0.0
 11
-40.40775406000011
 21
136.7842533499999
 31
0.0
  0
LINE
  5
855
330
36
100
AcDbEntity
  8
0
 62
     3
100
AcDbLine
 10
-41.48291899000013
 20
140.0599071599999
 30
0.0
 11
-41.48289408000005
 21
138.6327740399999
 31
0.0
  0
LINE
  5
856
330
36
100
AcDbEntity
  8
0
 62
     3
100
AcDbLine
 10
-41.48288673000024
 20
138.21148368
 30
0.0
 11
-41.48286182000013
 21
136.7842533499999
 31
0.0
  0
LINE
  5
857
330
36
100
AcDbEntity
  8
0
 62
     3
100
AcDbLine
 10
-38.68422392000002
 20
140.2873768
 30
0.0
 11
-38.24847680000015
 21
140.0599071599999
 31
0.0
  0
LINE
  5
858
330
36
100
AcDbEntity
  8
0
 62
     3
100
AcDbLine
 10
-38.24847680000015
 20
140.0599071599999
 30
0.0
 11
-38.24853397000016
 21
136.7842533499999
 31
0.0
  0
LINE
  5
859
330
36
100
AcDbEntity
  8
0
 62
     3
100
AcDbLine
 10
-38.68428903000017
 20
136.55679892
 30
0.0
 11
-38.24853397000016
 21
136.7842533499999
 31
0.0
  0
LINE
  5
85A
330
36
100
AcDbEntity
  8
0
 62
     3
100
AcDbLine
 10
-36.75471365000021
 20
140.2873768
 30
0.0
 11
-37.19046077000007
 21
140.0599071599999
 31
0.0
  0
LINE
  5
85B
330
36
100
AcDbEntity
  8
0
 62
     3
100
AcDbLine
 10
-37.19046077000007
 20
140.0599071599999
 30
0.0
 11
-37.19040360000008
 21
136.7842533499999
 31
0.0
  0
LINE
  5
85C
330
36
100
AcDbEntity
  8
0
 62
     3
100
AcDbLine
 10
-36.75464854000006
 20
136.55679892
 30
0.0
 11
-37.19040360000008
 21
136.7842533499999
 31
0.0
  0
LINE
  5
85D
330
36
100
AcDbEntity
  8
0
 62
     3
100
AcDbLine
 10
-36.54035408000004
 20
140.2873768
 30
0.0
 11
-36.10460696000018
 21
140.0599071599999
 31
0.0
  0
LINE
  5
85E
330
36
100
AcDbEntity
  8
0
 62
     3
100
AcDbLine
 10
-36.10460696000018
 20
140.0599071599999
 30
0.0
 11
-36.10466413000017
 21
136.7842533499999
 31
0.0
  0
LINE
  5
85F
330
36
100
AcDbEntity
  8
0
 62
     3
100
AcDbLine
 10
-36.54041919000019
 20
136.55679892
 30
0.0
 11
-36.10466413000017
 21
136.7842533499999
 31
0.0
  0
ARC
  5
860
330
36
100
AcDbEntity
  8
0
 62
     3
100
AcDbCircle
 10
-44.39134409999996
 20
138.43151862
 30
0.0
 40
2.086285909999999
100
AcDbArc
 50
97.70152350999723
 51
270.0
  0
ARC
  5
861
330
36
100
AcDbEntity
  8
0
 62
     3
100
AcDbCircle
 10
-31.51074326000026
 20
138.41056199
 30
0.0
 40
2.108943379999999
100
AcDbArc
 50
0.3142502699992814
 51
69.00558244998912
  0
ARC
  5
862
330
36
100
AcDbEntity
  8
0
 62
     3
100
AcDbCircle
 10
-31.05006794000019
 20
138.41056199
 30
0.0
 40
2.108943379999999
100
AcDbArc
 50
110.9944175499969
 51
148.1166110200056
  0
ARC
  5
863
330
36
100
AcDbEntity
  8
0
 62
     3
100
AcDbCircle
 10
-31.51074326000026
 20
138.43369573
 30
0.0
 40
2.108943379999999
100
AcDbArc
 50
290.9944175499969
 51
359.6857497300007
  0
ARC
  5
864
330
36
100
AcDbEntity
  8
0
 62
     3
100
AcDbCircle
 10
-31.05006794000019
 20
138.43369573
 30
0.0
 40
2.108943379999999
100
AcDbArc
 50
211.8833889799944
 51
249.0055824499891
  0
ARC
  5
865
330
36
100
AcDbEntity
  8
0
 62
     3
100
AcDbCircle
 10
-31.2804056
 20
139.28493425
 30
0.0
 40
1.214070989999997
100
AcDbArc
 50
64.3651718999996
 51
115.6348281000004
  0
ARC
  5
866
330
36
100
AcDbEntity
  8
0
 62
     3
100
AcDbCircle
 10
-31.2804056
 20
137.55932347
 30
0.0
 40
1.214070989999997
100
AcDbArc
 50
244.3651718999996
 51
295.6348281000004
  0
ARC
  5
867
330
36
100
AcDbEntity
  8
0
 62
     3
100
AcDbCircle
 10
-31.2804056
 20
139.30799593
 30
0.0
 40
0.59585563
100
AcDbArc
 50
19.48660554000719
 51
160.5133944599928
  0
ARC
  5
868
330
36
100
AcDbEntity
  8
0
 62
     3
100
AcDbCircle
 10
-31.2804056
 20
137.55932347
 30
0.0
 40
1.214070989999997
100
AcDbArc
 50
244.3651718999996
 51
295.6348281000004
  0
ARC
  5
869
330
36
100
AcDbEntity
  8
0
 62
     3
100
AcDbCircle
 10
-31.2804056
 20
137.53626179
 30
0.0
 40
0.59585563
100
AcDbArc
 50
199.4866055400071
 51
340.5133944599928
  0
ARC
  5
86A
330
36
100
AcDbEntity
  8
0
 62
     3
100
AcDbCircle
 10
-36.02287810000007
 20
116.19406902
 30
0.0
 40
26.04
100
AcDbArc
 50
69.50571480000848
 51
81.68998806999734
  0
ARC
  5
86B
330
36
100
AcDbEntity
  8
0
 62
     3
100
AcDbCircle
 10
-36.02287810000007
 20
160.6501887
 30
0.0
 40
26.04
100
AcDbArc
 50
278.3100119300026
 51
290.4942851999915
  0
ARC
  5
86C
330
36
100
AcDbEntity
  8
0
 62
     3
100
AcDbCircle
 10
-27.71467397000015
 20
138.42212886
 30
0.0
 40
2.31
100
AcDbArc
 50
290.4942851999915
 51
69.50571480000848
  0
ARC
  5
86D
330
36
100
AcDbEntity
  8
0
 62
     3
100
AcDbCircle
 10
-55.0146739700001
 20
138.42212886
 30
0.0
 40
2.31
100
AcDbArc
 50
110.4942851999915
 51
249.5057147999946
  0
ARC
  5
86E
330
36
100
AcDbEntity
  8
0
 62
     3
100
AcDbCircle
 10
-46.70646985000007
 20
116.19406902
 30
0.0
 40
26.04
100
AcDbArc
 50
98.31001192998948
 51
110.4942851999915
  0
ARC
  5
86F
330
36
100
AcDbEntity
  8
0
 62
     3
100
AcDbCircle
 10
-46.70646985000007
 20
160.6501887
 30
0.0
 40
26.04
100
AcDbArc
 50
249.5057147999946
 51
261.6899880699973
  0
ARC
  5
870
330
36
100
AcDbEntity
  8
0
 62
     3
100
AcDbCircle
 10
-41.36467397000024
 20
79.62212886000003
 30
0.0
 40
62.99999987
100
AcDbArc
 50
81.68998806999734
 51
98.31001192998948
  0
ARC
  5
871
330
36
100
AcDbEntity
  8
0
 62
     3
100
AcDbCircle
 10
-41.36467397000024
 20
197.22212886
 30
0.0
 40
62.99999987
100
AcDbArc
 50
261.6899880699973
 51
278.3100119300026
  0
ARC
  5
872
330
36
100
AcDbEntity
  8
0
 62
     3
100
AcDbCircle
 10
-41.36467397000024
 20
79.62212886000003
 30
0.0
 40
62.36999987
100
AcDbArc
 50
81.68998806999734
 51
98.31001192998948
  0
ARC
  5
873
330
36
100
AcDbEntity
  8
0
 62
     3
100
AcDbCircle
 10
-41.36467397000024
 20
197.22212886
 30
0.0
 40
62.36999987
100
AcDbArc
 50
261.6899880699973
 51
278.3100119300026
  0
ARC
  5
874
330
36
100
AcDbEntity
  8
0
 62
     3
100
AcDbCircle
 10
-36.02287810000007
 20
160.6501887
 30
0.0
 40
25.41
100
AcDbArc
 50
278.3100119300026
 51
290.4942851999915
  0
ARC
  5
875
330
36
100
AcDbEntity
  8
0
 62
     3
100
AcDbCircle
 10
-36.02287810000007
 20
116.19406902
 30
0.0
 40
25.41
100
AcDbArc
 50
69.50571480000848
 51
81.68998806999734
  0
ARC
  5
876
330
36
100
AcDbEntity
  8
0
 62
     3
100
AcDbCircle
 10
-27.71467397000015
 20
138.42212886
 30
0.0
 40
1.679999999999999
100
AcDbArc
 50
290.4942851999915
 51
69.50571480000848
  0
ARC
  5
877
330
36
100
AcDbEntity
  8
0
 62
     3
100
AcDbCircle
 10
-55.0146739700001
 20
138.42212886
 30
0.0
 40
1.679999999999999
100
AcDbArc
 50
110.4942851999915
 51
249.5057147999946
  0
ARC
  5
878
330
36
100
AcDbEntity
  8
0
 62
     3
100
AcDbCircle
 10
-46.70646985000007
 20
116.19406902
 30
0.0
 40
25.41
100
AcDbArc
 50
98.31001192998948
 51
110.4942851999915
  0
ARC
  5
879
330
36
100
AcDbEntity
  8
0
 62
     3
100
AcDbCircle
 10
-46.70646985000007
 20
160.6501887
 30
0.0
 40
25.41
100
AcDbArc
 50
249.5057147999946
 51
261.6899880699973
  0
LINE
  5
87A
330
36
100
AcDbEntity
  8
0
 62
     3
100
AcDbLine
 10
-36.75471287000005
 20
136.34525248
 30
0.0
 11
-38.68422470000019
 21
136.34525248
 31
0.0
  0
LINE
  5
87B
330
36
100
AcDbEntity
  8
0
 62
     3
100
AcDbLine
 10
-36.75471287000005
 20
136.55681362
 30
0.0
 11
-36.75471287000005
 21
136.34525248
 31
0.0
  0
LINE
  5
87C
330
36
100
AcDbEntity
  8
0
 62
     3
100
AcDbLine
 10
-38.89118226000005
 20
140.49890652
 30
0.0
 11
-40.84344479000015
 21
140.49890652
 31
0.0
  0
LINE
  5
87D
330
36
100
AcDbEntity
  8
0
 62
     3
100
AcDbLine
 10
-38.89118226000005
 20
140.49890652
 30
0.0
 11
-38.89118226000005
 21
140.2874440999999
 31
0.0
  0
LINE
  5
87E
330
36
100
AcDbEntity
  8
0
 62
     3
100
AcDbLine
 10
-38.89118226000005
 20
136.55681362
 30
0.0
 11
-38.89118226000005
 21
136.34515377
 31
0.0
  0
LINE
  5
87F
330
36
100
AcDbEntity
  8
0
 62
     3
100
AcDbLine
 10
-38.89118226000005
 20
136.34515377
 30
0.0
 11
-40.84344479000015
 21
136.34515377
 31
0.0
  0
LINE
  5
880
330
36
100
AcDbEntity
  8
0
 62
     3
100
AcDbLine
 10
-36.75471287000005
 20
140.49900524
 30
0.0
 11
-36.75471287000005
 21
140.2874440999999
 31
0.0
  0
LINE
  5
881
330
36
100
AcDbEntity
  8
0
 62
     3
100
AcDbLine
 10
-36.75471287000005
 20
140.49900524
 30
0.0
 11
-38.68422470000019
 21
140.49900524
 31
0.0
  0
LINE
  5
882
330
36
100
AcDbEntity
  8
0
 62
     3
100
AcDbLine
 10
-38.68422470000019
 20
140.49900524
 30
0.0
 11
-38.68422470000019
 21
140.2874440999999
 31
0.0
  0
LINE
  5
883
330
36
100
AcDbEntity
  8
0
 62
     3
100
AcDbLine
 10
-36.5403548700001
 20
136.55681362
 30
0.0
 11
-36.5403548700001
 21
136.34525248
 31
0.0
  0
LINE
  5
884
330
36
100
AcDbEntity
  8
0
 62
     3
100
AcDbLine
 10
-34.55605431000004
 20
136.34525248
 30
0.0
 11
-36.5403548700001
 21
136.34525248
 31
0.0
  0
LINE
  5
885
330
36
100
AcDbEntity
  8
0
 62
     3
100
AcDbLine
 10
-35.04659093999999
 20
139.83123572
 30
0.0
 11
-35.04659093999999
 21
137.013022
 31
0.0
  0
LINE
  5
886
330
36
100
AcDbEntity
  8
0
 62
     3
100
AcDbLine
 10
-35.04659093999999
 20
137.013022
 30
0.0
 11
-34.85654197000008
 21
137.013022
 31
0.0
  0
ARC
  5
887
330
36
100
AcDbEntity
  8
0
 62
     3
100
AcDbCircle
 10
-35.82832771000017
 20
138.42212886
 30
0.0
 40
1.71170957
100
AcDbArc
 50
304.5919552700023
 51
55.4080447299977
  0
LINE
  5
888
330
36
100
AcDbEntity
  8
0
 62
     3
100
AcDbLine
 10
-34.55605431000004
 20
140.49900524
 30
0.0
 11
-36.5403548700001
 21
140.49900524
 31
0.0
  0
LINE
  5
889
330
36
100
AcDbEntity
  8
0
 62
     3
100
AcDbLine
 10
-36.5403548700001
 20
140.49900524
 30
0.0
 11
-36.5403548700001
 21
140.2874440999999
 31
0.0
  0
LINE
  5
88A
330
36
100
AcDbEntity
  8
0
 62
     3
100
AcDbLine
 10
-38.68422470000019
 20
136.55681362
 30
0.0
 11
-38.68422470000019
 21
136.34525248
 31
0.0
  0
LINE
  5
88B
330
36
100
AcDbEntity
  8
0
 62
     3
100
AcDbLine
 10
-35.04659093999999
 20
139.83123572
 30
0.0
 11
-34.85654197000008
 21
139.83123572
 31
0.0
  0
LINE
  5
88C
330
36
100
AcDbEntity
  8
0
 62
     3
100
AcDbLine
 10
-46.68975060000001
 20
136.55681362
 30
0.0
 11
-46.6897542900001
 21
136.34523271
 31
0.0
  0
LINE
  5
88D
330
36
100
AcDbEntity
  8
0
 62
     3
100
AcDbLine
 10
-48.61926613000014
 20
136.34527225
 30
0.0
 11
-46.6897542900001
 21
136.34523858
 31
0.0
  0
LINE
  5
88E
330
36
100
AcDbEntity
  8
0
 62
     3
100
AcDbLine
 10
-52.91564798000013
 20
136.34525248
 30
0.0
 11
-51.3763826500001
 21
136.34525248
 31
0.0
  0
ARC
  5
88F
330
36
100
AcDbEntity
  8
0
 62
     3
100
AcDbCircle
 10
-57.8975906600001
 20
138.47103548
 30
0.0
 40
14.71356563
100
AcDbArc
 50
353.8660061899985
 51
357.6940342600001
  0
LINE
  5
890
330
36
100
AcDbEntity
  8
0
 62
     3
100
AcDbLine
 10
-44.18101079999996
 20
137.88266783
 30
0.0
 11
-43.19593991000011
 21
137.87902295
 31
0.0
  0
LINE
  5
892
330
36
100
AcDbEntity
  8
0
 62
     3
100
AcDbLine
 10
-44.17703238000011
 20
138.95788257
 30
0.0
 11
-43.19196150000015
 21
138.9542377
 31
0.0
  0
ARC
  5
893
330
36
100
AcDbEntity
  8
0
 62
     3
100
AcDbCircle
 10
-57.8975906600001
 20
138.47103548
 30
0.0
 40
14.71356563
100
AcDbArc
 50
1.881965739999665
 51
5.709993809997874
  0
LINE
  5
894
330
36
100
AcDbEntity
  8
0
 62
     3
100
AcDbLine
 10
-46.68968180000002
 20
140.49898547
 30
0.0
 11
-46.6896854900001
 21
140.2874440999999
 31
0.0
  0
LINE
  5
895
330
36
100
AcDbEntity
  8
0
 62
     3
100
AcDbLine
 10
-48.61919363000016
 20
140.49902501
 30
0.0
 11
-46.68968180000002
 21
140.4989913299999
 31
0.0
  0
LINE
  5
896
330
36
100
AcDbEntity
  8
0
 62
     3
100
AcDbLine
 10
-48.61926244000006
 20
136.55681362
 30
0.0
 11
-48.61926613000014
 21
136.34527225
 31
0.0
  0
LINE
  5
897
330
36
100
AcDbEntity
  8
0
 62
     3
100
AcDbLine
 10
-48.61919363000016
 20
140.49902501
 30
0.0
 11
-48.61919732000024
 21
140.2874440999999
 31
0.0
  0
LINE
  5
898
330
36
100
AcDbEntity
  8
0
 62
     3
100
AcDbLine
 10
-51.3763826500001
 20
136.55681362
 30
0.0
 11
-51.3763826500001
 21
136.34525248
 31
0.0
  0
LINE
  5
899
330
36
100
AcDbEntity
  8
0
 62
     3
100
AcDbLine
 10
-51.81213056000024
 20
138.78114057
 30
0.0
 11
-50.28970049999998
 21
136.34525248
 31
0.0
  0
LINE
  5
89A
330
36
100
AcDbEntity
  8
0
 62
     3
100
AcDbLine
 10
-50.28970049999998
 20
136.34525248
 30
0.0
 11
-49.27026778000004
 21
136.34525248
 31
0.0
  0
LINE
  5
89B
330
36
100
AcDbEntity
  8
0
 62
     3
100
AcDbLine
 10
-48.83451987000011
 20
140.49900524
 30
0.0
 11
-48.83451987000011
 21
140.2874440999999
 31
0.0
  0
LINE
  5
89C
330
36
100
AcDbEntity
  8
0
 62
     3
100
AcDbLine
 10
-50.37378520000014
 20
140.49900524
 30
0.0
 11
-48.83451987000011
 21
140.49900524
 31
0.0
  0
LINE
  5
89D
330
36
100
AcDbEntity
  8
0
 62
     3
100
AcDbLine
 10
-50.37378520000014
 20
140.49900524
 30
0.0
 11
-50.37378520000014
 21
140.2874440999999
 31
0.0
  0
LINE
  5
89E
330
36
100
AcDbEntity
  8
0
 62
     3
100
AcDbLine
 10
-49.93803729000001
 20
138.6176389
 30
0.0
 11
-51.17268396000008
 21
140.49900524
 31
0.0
  0
LINE
  5
89F
330
36
100
AcDbEntity
  8
0
 62
     3
100
AcDbLine
 10
-52.91564798000013
 20
140.49900524
 30
0.0
 11
-51.17268396000008
 21
140.49900524
 31
0.0
  0
LINE
  5
8A0
330
36
100
AcDbEntity
  8
0
 62
     3
100
AcDbLine
 10
-42.9994336200002
 20
140.49890652
 30
0.0
 11
-41.04717108000023
 21
140.49890652
 31
0.0
  0
LINE
  5
8A1
330
36
100
AcDbEntity
  8
0
 62
     3
100
AcDbLine
 10
-42.9994336200002
 20
140.2874440999999
 30
0.0
 11
-42.9994336200002
 21
140.49890652
 31
0.0
  0
LINE
  5
8A2
330
36
100
AcDbEntity
  8
0
 62
     3
100
AcDbLine
 10
-42.9994336200002
 20
136.34515377
 30
0.0
 11
-42.9994336200002
 21
136.55681362
 31
0.0
  0
LINE
  5
8A3
330
36
100
AcDbEntity
  8
0
 62
     3
100
AcDbLine
 10
-42.9994336200002
 20
136.34515377
 30
0.0
 11
-41.04717108000023
 21
136.34515377
 31
0.0
  0
LINE
  5
8A4
330
36
100
AcDbEntity
  8
0
 62
     3
100
AcDbLine
 10
-40.84344479000015
 20
136.55681362
 30
0.0
 11
-40.84344479000015
 21
136.34515377
 31
0.0
  0
LINE
  5
8A5
330
36
100
AcDbEntity
  8
0
 62
     3
100
AcDbLine
 10
-41.04717108000023
 20
136.55681362
 30
0.0
 11
-41.04717108000023
 21
136.34515377
 31
0.0
  0
LINE
  5
8A6
330
36
100
AcDbEntity
  8
0
 62
     3
100
AcDbLine
 10
-41.04717108000023
 20
140.2874440999999
 30
0.0
 11
-41.04717108000023
 21
140.49890652
 31
0.0
  0
LINE
  5
8A7
330
36
100
AcDbEntity
  8
0
 62
     3
100
AcDbLine
 10
-40.84344479000015
 20
140.2874440999999
 30
0.0
 11
-40.84344479000015
 21
140.49890652
 31
0.0
  0
LINE
  5
8A8
330
36
100
AcDbEntity
  8
0
 62
     3
100
AcDbLine
 10
-52.91564798000013
 20
136.55681362
 30
0.0
 11
-52.91564798000013
 21
136.34525248
 31
0.0
  0
LINE
  5
8A9
330
36
100
AcDbEntity
  8
0
 62
     3
100
AcDbLine
 10
-52.91564798000013
 20
140.49900524
 30
0.0
 11
-52.91564798000013
 21
140.2874440999999
 31
0.0
  0
ARC
  5
8AA
330
36
100
AcDbEntity
  8
0
 62
     3
100
AcDbCircle
 10
-34.34605431
 20
138.8578767699999
 30
0.0
 40
1.641128469999999
100
AcDbArc
 50
17.30874897999428
 51
23.76507095999313
  0
ARC
  5
8AB
330
36
100
AcDbEntity
  8
0
 62
     3
100
AcDbCircle
 10
-35.74432771000011
 20
138.42212886
 30
0.0
 40
3.105725599999998
100
AcDbArc
 50
342.6912510200057
 51
17.30856643999702
  0
ARC
  5
8AC
330
36
100
AcDbEntity
  8
0
 62
     3
100
AcDbCircle
 10
-34.34605431
 20
137.98638096
 30
0.0
 40
1.641128469999999
100
AcDbArc
 50
336.2349290400016
 51
342.6912510200057
  0
ARC
  5
8AD
330
36
100
AcDbEntity
  8
0
 62
     3
100
AcDbCircle
 10
-34.55605431000004
 20
138.8578767699999
 30
0.0
 40
1.641128469999999
100
AcDbArc
 50
17.30874897999428
 51
90.0
  0
ARC
  5
8AE
330
36
100
AcDbEntity
  8
0
 62
     3
100
AcDbCircle
 10
-35.95432771000015
 20
138.42212886
 30
0.0
 40
3.105725599999998
100
AcDbArc
 50
342.6912510200057
 51
17.30856643999702
  0
ARC
  5
8AF
330
36
100
AcDbEntity
  8
0
 62
     3
100
AcDbCircle
 10
-34.55605431000004
 20
137.98638096
 30
0.0
 40
1.641128469999999
100
AcDbArc
 50
270.0
 51
342.6912510200057
  0
ARC
  5
8B0
330
36
100
AcDbEntity
  8
0
 62
     3
100
AcDbCircle
 10
-44.67999468000015
 20
138.42212886
 30
0.0
 40
2.076876379999998
100
AcDbArc
 50
46.75287960999258
 51
89.74999828999569
  0
ARC
  5
8B1
330
36
100
AcDbEntity
  8
0
 62
     3
100
AcDbCircle
 10
-44.67999468000015
 20
138.42212886
 30
0.0
 40
2.076876379999998
100
AcDbArc
 50
273.976333149997
 51
312.8231203899994
  0
ARC
  5
8B2
330
36
100
AcDbEntity
  8
0
 62
     3
100
AcDbCircle
 10
-33.23818674000018
 20
138.3900673299999
 30
0.0
 40
2.755888999999998
100
AcDbArc
 50
0.6665840599997991
 51
23.90392827000267
  0
ARC
  5
8B3
330
36
100
AcDbEntity
  8
0
 62
     3
100
AcDbCircle
 10
-29.32262446000004
 20
138.3900673299999
 30
0.0
 40
2.755888999999998
100
AcDbArc
 50
156.0960717299973
 51
179.3334159400002
  0
ARC
  5
8B4
330
36
100
AcDbEntity
  8
0
 62
     3
100
AcDbCircle
 10
-33.23818674000018
 20
138.45419039
 30
0.0
 40
2.755888999999998
100
AcDbArc
 50
336.0960717299974
 51
359.3334159400002
  0
ARC
  5
8B5
330
36
100
AcDbEntity
  8
0
 62
     3
100
AcDbCircle
 10
-29.32262446000004
 20
138.45419039
 30
0.0
 40
2.755888999999998
100
AcDbArc
 50
180.6665840599998
 51
203.9039282700027
  0
LINE
  5
8B6
330
36
100
AcDbEntity
  8
0
 62
     3
100
AcDbLine
 10
-24.67233737000015
 20
138.5
 30
0.0
 11
90.0
 21
138.5
 31
0.0
  0
LINE
  5
8B7
330
36
100
AcDbEntity
  8
0
 62
     3
100
AcDbLine
 10
-58.08508389000007
 20
138.5
 30
0.0
 11
-90.0
 21
138.5
 31
0.0
  0
TEXT
  5
8B8
330
36
100
AcDbEntity
  8
0
 62
     3
100
AcDbText
 10
77.5
 20
129.0
 30
0.0
 40
3.2
  1
担　当
  7
高3.2
100
AcDbText
  0
TEXT
  5
8B9
330
36
100
AcDbEntity
  8
0
 62
     3
100
AcDbText
 10
33.5
 20
129.0
 30
0.0
 40
3.2
  1
変更・追記内容
  7
高3.2
100
AcDbText
  0
TEXT
  5
8BA
330
36
100
AcDbEntity
  8
0
 62
     3
100
AcDbText
 10
8.613515000339246
 20
124.3294614900917
 30
0.0
 40
2.0
  1
1
  7
高2
100
AcDbText
  0
TEXT
  5
8BB
330
36
100
AcDbEntity
  8
0
 62
     3
100
AcDbText
 10
8.305003523581945
 20
119.1596447778188
 30
0.0
 40
2.0
  1
2
  7
高2
100
AcDbText
  0
TEXT
  5
8BC
330
36
100
AcDbEntity
  8
0
 62
     3
100
AcDbText
 10
15.5
 20
129.0
 30
0.0
 40
3.2
  1
日　付
  7
高3.2
100
AcDbText
  0
TEXT
  5
8BD
330
36
100
AcDbEntity
  8
0
 62
     3
100
AcDbText
 10
15.5
 20
134.0
 30
0.0
 40
3.2
  1
図　　　　面　　　　略　　　　歴
  7
高3.2
100
AcDbText
  0
TEXT
  5
8BE
330
36
100
AcDbEntity
  8
0
 62
     3
100
AcDbText
 10
5.5
 20
129.0
 30
0.0
 40
3.2
  1
記号
  7
高3.2
100
AcDbText
  0
LINE
  5
8BF
330
36
100
AcDbEntity
  8
0
 62
     7
100
AcDbLine
 10
9.0
 20
122.2908960000001
 30
0.0
 11
7.099999999999909
 21
119.0
 31
0.0
  0
LINE
  5
8C0
330
36
100
AcDbEntity
  8
0
 62
     7
100
AcDbLine
 10
9.0
 20
122.2908960000001
 30
0.0
 11
10.89999999999986
 21
119.0
 31
0.0
  0
LINE
  5
8C1
330
36
100
AcDbEntity
  8
0
 62
     7
100
AcDbLine
 10
9.0
 20
127.2908970000001
 30
0.0
 11
7.099999999999909
 21
124.0
 31
0.0
  0
LINE
  5
8C2
330
36
100
AcDbEntity
  8
0
 62
     7
100
AcDbLine
 10
9.0
 20
127.2908970000001
 30
0.0
 11
10.89999999999986
 21
124.0
 31
0.0
  0
LINE
  5
8C3
330
36
100
AcDbEntity
  8
0
 62
     7
100
AcDbLine
 10
7.099999999999909
 20
124.0
 30
0.0
 11
10.89999999999986
 21
124.0
 31
0.0
  0
LINE
  5
8C4
330
36
100
AcDbEntity
  8
0
 62
     3
100
AcDbLine
 10
4.0
 20
133.5
 30
0.0
 11
90.0
 21
133.5
 31
0.0
  0
LINE
  5
8C5
330
36
100
AcDbEntity
  8
0
 62
     3
100
AcDbLine
 10
4.0
 20
128.5
 30
0.0
 11
90.0
 21
128.5
 31
0.0
  0
LINE
  5
8C6
330
36
100
AcDbEntity
  8
0
 62
     7
100
AcDbLine
 10
4.0
 20
123.5
 30
0.0
 11
90.0
 21
123.5
 31
0.0
  0
LINE
  5
8C7
330
36
100
AcDbEntity
  8
0
 62
     3
100
AcDbLine
 10
4.0
 20
118.5
 30
0.0
 11
90.0
 21
118.5
 31
0.0
  0
LINE
  5
8C8
330
36
100
AcDbEntity
  8
0
 62
     7
100
AcDbLine
 10
76.0
 20
118.5
 30
0.0
 11
76.0
 21
133.5
 31
0.0
  0
LINE
  5
8C9
330
36
100
AcDbEntity
  8
0
 62
     7
100
AcDbLine
 10
32.0
 20
118.5
 30
0.0
 11
32.0
 21
133.5
 31
0.0
  0
LINE
  5
8CA
330
36
100
AcDbEntity
  8
0
 62
     7
100
AcDbLine
 10
14.0
 20
118.5
 30
0.0
 11
14.0
 21
133.5
 31
0.0
  0
LINE
  5
8CB
330
36
100
AcDbEntity
  8
0
 62
     3
100
AcDbLine
 10
4.0
 20
118.5
 30
0.0
 11
4.0
 21
138.5
 31
0.0
  0
LINE
  5
A06
330
36
100
AcDbEntity
  8
0
 62
     3
100
AcDbLine
 10
-44.17703238000011
 20
138.95788257
 30
0.0
 11
-44.19565991000013
 21
139.07715034
 31
0.0
  0
LINE
  5
A07
330
36
100
AcDbEntity
  8
0
 62
     3
100
AcDbLine
 10
-44.19565991000013
 20
139.07715034
 30
0.0
 11
-44.21803109000006
 21
139.19135512
 31
0.0
  0
LINE
  5
A08
330
36
100
AcDbEntity
  8
0
 62
     3
100
AcDbLine
 10
-44.21803109000006
 20
139.19135512
 30
0.0
 11
-44.2439730200001
 21
139.29961418
 31
0.0
  0
LINE
  5
A09
330
36
100
AcDbEntity
  8
0
 62
     3
100
AcDbLine
 10
-44.2439730200001
 20
139.29961418
 30
0.0
 11
-44.2732851600001
 21
139.4010907299999
 31
0.0
  0
LINE
  5
A0A
330
36
100
AcDbEntity
  8
0
 62
     3
100
AcDbLine
 10
-44.2732851600001
 20
139.4010907299999
 30
0.0
 11
-44.30574096999999
 21
139.49500041
 31
0.0
  0
LINE
  5
A0B
330
36
100
AcDbEntity
  8
0
 62
     3
100
AcDbLine
 10
-44.30574096999999
 20
139.49500041
 30
0.0
 11
-44.34108956
 21
139.58061735
 31
0.0
  0
LINE
  5
A0C
330
36
100
AcDbEntity
  8
0
 62
     3
100
AcDbLine
 10
-44.34108956
 20
139.58061735
 30
0.0
 11
-44.3790577100001
 21
139.65727976
 31
0.0
  0
LINE
  5
A0D
330
36
100
AcDbEntity
  8
0
 62
     3
100
AcDbLine
 10
-44.3790577100001
 20
139.65727976
 30
0.0
 11
-44.41935196000009
 21
139.7243951
 31
0.0
  0
LINE
  5
A0E
330
36
100
AcDbEntity
  8
0
 62
     3
100
AcDbLine
 10
-44.41935196000009
 20
139.7243951
 30
0.0
 11
-44.46166083000025
 21
139.7814445899999
 31
0.0
  0
LINE
  5
A0F
330
36
100
AcDbEntity
  8
0
 62
     3
100
AcDbLine
 10
-44.46166083000025
 20
139.7814445899999
 30
0.0
 11
-44.50565732000018
 21
139.82798726
 31
0.0
  0
LINE
  5
A10
330
36
100
AcDbEntity
  8
0
 62
     3
100
AcDbLine
 10
-44.50565732000018
 20
139.82798726
 30
0.0
 11
-44.55100134000008
 21
139.86366338
 31
0.0
  0
LINE
  5
A11
330
36
100
AcDbEntity
  8
0
 62
     3
100
AcDbLine
 10
-44.55100134000008
 20
139.86366338
 30
0.0
 11
-44.59734241000023
 21
139.88819717
 31
0.0
  0
LINE
  5
A12
330
36
100
AcDbEntity
  8
0
 62
     3
100
AcDbLine
 10
-44.59734241000023
 20
139.88819717
 30
0.0
 11
-44.64432235000002
 21
139.90139902
 31
0.0
  0
LINE
  5
A13
330
36
100
AcDbEntity
  8
0
 62
     3
100
AcDbLine
 10
-44.64432235000002
 20
139.90139902
 30
0.0
 11
-44.69157801000005
 21
139.90316686
 31
0.0
  0
LINE
  5
A14
330
36
100
AcDbEntity
  8
0
 62
     3
100
AcDbLine
 10
-44.69157801000005
 20
139.90316686
 30
0.0
 11
-44.7387441400001
 21
139.8934870499999
 31
0.0
  0
LINE
  5
A15
330
36
100
AcDbEntity
  8
0
 62
     3
100
AcDbLine
 10
-44.7387441400001
 20
139.8934870499999
 30
0.0
 11
-44.78545617000007
 21
139.8724343899999
 31
0.0
  0
LINE
  5
A16
330
36
100
AcDbEntity
  8
0
 62
     3
100
AcDbLine
 10
-44.78545617000007
 20
139.8724343899999
 30
0.0
 11
-44.83135303000017
 21
139.8401716199999
 31
0.0
  0
LINE
  5
A17
330
36
100
AcDbEntity
  8
0
 62
     3
100
AcDbLine
 10
-44.83135303000017
 20
139.8401716199999
 30
0.0
 11
-44.87607997000011
 21
139.79694811
 31
0.0
  0
LINE
  5
A18
330
36
100
AcDbEntity
  8
0
 62
     3
100
AcDbLine
 10
-44.87607997000011
 20
139.79694811
 30
0.0
 11
-44.91929128000015
 21
139.74309795
 31
0.0
  0
LINE
  5
A19
330
36
100
AcDbEntity
  8
0
 62
     3
100
AcDbLine
 10
-44.91929128000015
 20
139.74309795
 30
0.0
 11
-44.96065294000003
 21
139.67903738
 31
0.0
  0
LINE
  5
A1A
330
36
100
AcDbEntity
  8
0
 62
     3
100
AcDbLine
 10
-44.96065294000003
 20
139.67903738
 30
0.0
 11
-44.99984526000026
 21
139.60526156
 31
0.0
  0
LINE
  5
A1B
330
36
100
AcDbEntity
  8
0
 62
     3
100
AcDbLine
 10
-44.99984526000026
 20
139.60526156
 30
0.0
 11
-45.0365653000001
 21
139.52234073
 31
0.0
  0
LINE
  5
A1C
330
36
100
AcDbEntity
  8
0
 62
     3
100
AcDbLine
 10
-45.0365653000001
 20
139.52234073
 30
0.0
 11
-45.07052923000014
 21
139.43091582
 31
0.0
  0
LINE
  5
A1D
330
36
100
AcDbEntity
  8
0
 62
     3
100
AcDbLine
 10
-45.07052923000014
 20
139.43091582
 30
0.0
 11
-45.10147453000013
 21
139.33169352
 31
0.0
  0
LINE
  5
A1E
330
36
100
AcDbEntity
  8
0
 62
     3
100
AcDbLine
 10
-45.10147453000013
 20
139.33169352
 30
0.0
 11
-45.12916201000006
 21
139.2254407499999
 31
0.0
  0
LINE
  5
A1F
330
36
100
AcDbEntity
  8
0
 62
     3
100
AcDbLine
 10
-45.12916201000006
 20
139.2254407499999
 30
0.0
 11
-45.15337766000015
 21
139.11297879
 31
0.0
  0
LINE
  5
A20
330
36
100
AcDbEntity
  8
0
 62
     3
100
AcDbLine
 10
-45.15337766000015
 20
139.11297879
 30
0.0
 11
-45.17393430000015
 21
138.99517691
 31
0.0
  0
LINE
  5
A21
330
36
100
AcDbEntity
  8
0
 62
     3
100
AcDbLine
 10
-45.17393430000015
 20
138.99517691
 30
0.0
 11
-45.19067304000009
 21
138.87294567
 31
0.0
  0
LINE
  5
A22
330
36
100
AcDbEntity
  8
0
 62
     3
100
AcDbLine
 10
-45.19067304000009
 20
138.87294567
 30
0.0
 11
-45.2034645000001
 21
138.74722985
 31
0.0
  0
LINE
  5
A23
330
36
100
AcDbEntity
  8
0
 62
     3
100
AcDbLine
 10
-45.2034645000001
 20
138.74722985
 30
0.0
 11
-45.2122098100001
 21
138.61900117
 31
0.0
  0
LINE
  5
A24
330
36
100
AcDbEntity
  8
0
 62
     3
100
AcDbLine
 10
-45.2122098100001
 20
138.61900117
 30
0.0
 11
-45.2168413700001
 21
138.48925076
 31
0.0
  0
LINE
  5
A25
330
36
100
AcDbEntity
  8
0
 62
     3
100
AcDbLine
 10
-45.2168413700001
 20
138.48925076
 30
0.0
 11
-45.21732338000015
 21
138.35898153
 31
0.0
  0
LINE
  5
A26
330
36
100
AcDbEntity
  8
0
 62
     3
100
AcDbLine
 10
-45.21732338000015
 20
138.35898153
 30
0.0
 11
-45.21365212
 21
138.2292004099999
 31
0.0
  0
LINE
  5
A27
330
36
100
AcDbEntity
  8
0
 62
     3
100
AcDbLine
 10
-45.21365212
 20
138.2292004099999
 30
0.0
 11
-45.20585596
 21
138.10091052
 31
0.0
  0
LINE
  5
A28
330
36
100
AcDbEntity
  8
0
 62
     3
100
AcDbLine
 10
-45.20585596
 20
138.10091052
 30
0.0
 11
-45.19399516000021
 21
137.97510348
 31
0.0
  0
LINE
  5
A29
330
36
100
AcDbEntity
  8
0
 62
     3
100
AcDbLine
 10
-45.19399516000021
 20
137.97510348
 30
0.0
 11
-45.17816140000014
 21
137.85275171
 31
0.0
  0
LINE
  5
A2A
330
36
100
AcDbEntity
  8
0
 62
     3
100
AcDbLine
 10
-45.17816140000014
 20
137.85275171
 30
0.0
 11
-45.15847708000001
 21
137.73480094
 31
0.0
  0
LINE
  5
A2B
330
36
100
AcDbEntity
  8
0
 62
     3
100
AcDbLine
 10
-45.15847708000001
 20
137.73480094
 30
0.0
 11
-45.13509432000001
 21
137.62216287
 31
0.0
  0
LINE
  5
A2C
330
36
100
AcDbEntity
  8
0
 62
     3
100
AcDbLine
 10
-45.13509432000001
 20
137.62216287
 30
0.0
 11
-45.10819389000015
 21
137.51570811
 31
0.0
  0
LINE
  5
A2D
330
36
100
AcDbEntity
  8
0
 62
     3
100
AcDbLine
 10
-45.10819389000015
 20
137.51570811
 30
0.0
 11
-45.0779836900001
 21
137.41625952
 31
0.0
  0
LINE
  5
A2E
330
36
100
AcDbEntity
  8
0
 62
     3
100
AcDbLine
 10
-45.0779836900001
 20
137.41625952
 30
0.0
 11
-45.04469723999998
 21
137.32458579
 31
0.0
  0
LINE
  5
A2F
330
36
100
AcDbEntity
  8
0
 62
     3
100
AcDbLine
 10
-45.04469723999998
 20
137.32458579
 30
0.0
 11
-45.00859184000001
 21
137.24139549
 31
0.0
  0
LINE
  5
A30
330
36
100
AcDbEntity
  8
0
 62
     3
100
AcDbLine
 10
-45.00859184000001
 20
137.24139549
 30
0.0
 11
-44.96994654000014
 21
137.16733166
 31
0.0
  0
LINE
  5
A31
330
36
100
AcDbEntity
  8
0
 62
     3
100
AcDbLine
 10
-44.96994654000014
 20
137.16733166
 30
0.0
 11
-44.92906006000021
 21
137.10296677
 31
0.0
  0
LINE
  5
A32
330
36
100
AcDbEntity
  8
0
 62
     3
100
AcDbLine
 10
-44.92906006000021
 20
137.10296677
 30
0.0
 11
-44.88624844000014
 21
137.04879832
 31
0.0
  0
LINE
  5
A33
330
36
100
AcDbEntity
  8
0
 62
     3
100
AcDbLine
 10
-44.88624844000014
 20
137.04879832
 30
0.0
 11
-44.84184258000005
 21
137.005245
 31
0.0
  0
LINE
  5
A34
330
36
100
AcDbEntity
  8
0
 62
     3
100
AcDbLine
 10
-44.84184258000005
 20
137.005245
 30
0.0
 11
-44.79618573000015
 21
136.9726434699999
 31
0.0
  0
LINE
  5
A35
330
36
100
AcDbEntity
  8
0
 62
     3
100
AcDbLine
 10
-44.79618573000015
 20
136.9726434699999
 30
0.0
 11
-44.74963077000007
 21
136.9512457099999
 31
0.0
  0
LINE
  5
A36
330
36
100
AcDbEntity
  8
0
 62
     3
100
AcDbLine
 10
-44.74963077000007
 20
136.9512457099999
 30
0.0
 11
-44.7025375600001
 21
136.94121713
 31
0.0
  0
LINE
  5
A37
330
36
100
AcDbEntity
  8
0
 62
     3
100
AcDbLine
 10
-44.7025375600001
 20
136.94121713
 30
0.0
 11
-44.65527011000017
 21
136.94263523
 31
0.0
  0
LINE
  5
A38
330
36
100
AcDbEntity
  8
0
 62
     3
100
AcDbLine
 10
-44.65527011000017
 20
136.94263523
 30
0.0
 11
-44.60819377000006
 21
136.95548905
 31
0.0
  0
LINE
  5
A39
330
36
100
AcDbEntity
  8
0
 62
     3
100
AcDbLine
 10
-44.60819377000006
 20
136.95548905
 30
0.0
 11
-44.56167241000001
 21
136.97967925
 31
0.0
  0
LINE
  5
A3A
330
36
100
AcDbEntity
  8
0
 62
     3
100
AcDbLine
 10
-44.56167241000001
 20
136.97967925
 30
0.0
 11
-44.51606562000007
 21
137.01501883
 31
0.0
  0
LINE
  5
A3B
330
36
100
AcDbEntity
  8
0
 62
     3
100
AcDbLine
 10
-44.51606562000007
 20
137.01501883
 30
0.0
 11
-44.47172592000015
 21
137.0612346499999
 31
0.0
  0
LINE
  5
A3C
330
36
100
AcDbEntity
  8
0
 62
     3
100
AcDbLine
 10
-44.47172592000015
 20
137.0612346499999
 30
0.0
 11
-44.42899603000022
 21
137.11796949
 31
0.0
  0
LINE
  5
A3D
330
36
100
AcDbEntity
  8
0
 62
     3
100
AcDbLine
 10
-44.42899603000022
 20
137.11796949
 30
0.0
 11
-44.38820623000014
 21
137.1847848
 31
0.0
  0
LINE
  5
A3E
330
36
100
AcDbEntity
  8
0
 62
     3
100
AcDbLine
 10
-44.38820623000014
 20
137.1847848
 30
0.0
 11
-44.3496718000001
 21
137.26116415
 31
0.0
  0
LINE
  5
A3F
330
36
100
AcDbEntity
  8
0
 62
     3
100
AcDbLine
 10
-44.3496718000001
 20
137.26116415
 30
0.0
 11
-44.31369059999997
 21
137.3465171599999
 31
0.0
  0
LINE
  5
A40
330
36
100
AcDbEntity
  8
0
 62
     3
100
AcDbLine
 10
-44.31369059999997
 20
137.3465171599999
 30
0.0
 11
-44.2805407400001
 21
137.44018409
 31
0.0
  0
LINE
  5
A41
330
36
100
AcDbEntity
  8
0
 62
     3
100
AcDbLine
 10
-44.2805407400001
 20
137.44018409
 30
0.0
 11
-44.25047846000007
 21
137.54144095
 31
0.0
  0
LINE
  5
A42
330
36
100
AcDbEntity
  8
0
 62
     3
100
AcDbLine
 10
-44.25047846000007
 20
137.54144095
 30
0.0
 11
-44.2237361100001
 21
137.64950507
 31
0.0
  0
LINE
  5
A43
330
36
100
AcDbEntity
  8
0
 62
     3
100
AcDbLine
 10
-44.2237361100001
 20
137.64950507
 30
0.0
 11
-44.20052041000007
 21
137.76354118
 31
0.0
  0
LINE
  5
A44
330
36
100
AcDbEntity
  8
0
 62
     3
100
AcDbLine
 10
-44.20052041000007
 20
137.76354118
 30
0.0
 11
-44.18101079999996
 21
137.88266783
 31
0.0
  0
LINE
  5
A45
330
36
100
AcDbEntity
  8
0
100
AcDbLine
 10
-53.06737559920424
 20
32.550773
 30
0.0
 11
-53.06737559920424
 21
11.71609133333334
 31
0.0
  0
LINE
  5
A46
330
36
100
AcDbEntity
  8
0
100
AcDbLine
 10
64.93262440079575
 20
32.550773
 30
0.0
 11
64.93262440079575
 21
11.71609133333334
 31
0.0
  0
LINE
  5
A47
330
36
100
AcDbEntity
  8
0
100
AcDbLine
 10
-50.56737559920424
 20
12.96609133333334
 30
0.0
 11
62.43262440079575
 21
12.96609133333334
 31
0.0
  0
LINE
  5
A4B
330
36
100
AcDbEntity
  8
0
100
AcDbLine
 10
52.19898023412906
 20
31.550773
 30
0.0
 11
34.24859870515504
 21
31.550773
 31
0.0
  0
LINE
  5
A4C
330
36
100
AcDbEntity
  8
0
100
AcDbLine
 10
52.19898023412906
 20
41.55077299999999
 30
0.0
 11
34.24859870515504
 21
41.550773
 31
0.0
  0
LINE
  5
A4D
330
36
100
AcDbEntity
  8
0
100
AcDbLine
 10
35.49859870515504
 20
29.050773
 30
0.0
 11
35.49859870515504
 21
26.550773
 31
0.0
  0
LINE
  5
A4E
330
36
100
AcDbEntity
  8
0
100
AcDbLine
 10
35.49859870515504
 20
44.050773
 30
0.0
 11
35.49859870515505
 21
54.300773
 31
0.0
  0
LINE
  5
A4F
330
36
100
AcDbEntity
  8
0
100
AcDbLine
 10
35.49859870515504
 20
31.550773
 30
0.0
 11
35.49859870515504
 21
41.550773
 31
0.0
  0
TEXT
  5
A53
330
36
100
AcDbEntity
  8
0
 62
     4
100
AcDbText
 10
2.932624400795749
 20
13.59109133333334
 30
0.0
 40
3.0
  1
118
100
AcDbText
  0
LINE
  5
A54
330
36
100
AcDbEntity
  8
0
  6
ByBlock
 62
     0
370
    -2
100
AcDbLine
 10
62.43262440079575
 20
13.63596383333334
 30
0.0
 11
64.93262440079575
 21
12.96609133333334
 31
0.0
  0
LINE
  5
A55
330
36
100
AcDbEntity
  8
0
  6
ByBlock
 62
     0
370
    -2
100
AcDbLine
 10
64.93262440079575
 20
12.96609133333334
 30
0.0
 11
62.43262440079575
 21
12.29621883333334
 31
0.0
  0
LINE
  5
A56
330
36
100
AcDbEntity
  8
0
  6
ByBlock
 62
     0
370
    -2
100
AcDbLine
 10
64.93262440079575
 20
12.96609133333334
 30
0.0
 11
62.43262440079575
 21
12.96609133333334
 31
0.0
  0
LINE
  5
A57
330
36
100
AcDbEntity
  8
0
  6
ByBlock
 62
     0
370
    -2
100
AcDbLine
 10
-50.56737559920424
 20
12.29621883333334
 30
0.0
 11
-53.06737559920424
 21
12.96609133333334
 31
0.0
  0
LINE
  5
A58
330
36
100
AcDbEntity
  8
0
  6
ByBlock
 62
     0
370
    -2
100
AcDbLine
 10
-53.06737559920424
 20
12.96609133333334
 30
0.0
 11
-50.56737559920424
 21
13.63596383333334
 31
0.0
  0
LINE
  5
A59
330
36
100
AcDbEntity
  8
0
  6
ByBlock
 62
     0
370
    -2
100
AcDbLine
 10
-53.06737559920424
 20
12.96609133333334
 30
0.0
 11
-50.56737559920424
 21
12.96609133333334
 31
0.0
  0
TEXT
  5
A5A
330
36
100
AcDbEntity
  8
0
 62
     4
100
AcDbText
 10
34.87359870515503
 20
46.575773
 30
0.0
 40
3.0
  1
\U+03C610
 50
90.0
100
AcDbText
  0
LINE
  5
A5B
330
36
100
AcDbEntity
  8
0
  6
ByBlock
 62
     0
370
    -2
100
AcDbLine
 10
36.16847120515505
 20
44.050773
 30
0.0
 11
35.49859870515504
 21
41.550773
 31
0.0
  0
LINE
  5
A5C
330
36
100
AcDbEntity
  8
0
  6
ByBlock
 62
     0
370
    -2
100
AcDbLine
 10
35.49859870515504
 20
41.550773
 30
0.0
 11
34.82872620515504
 21
44.050773
 31
0.0
  0
LINE
  5
A5D
330
36
100
AcDbEntity
  8
0
  6
ByBlock
 62
     0
370
    -2
100
AcDbLine
 10
35.49859870515504
 20
41.550773
 30
0.0
 11
35.49859870515504
 21
44.050773
 31
0.0
  0
LINE
  5
A5E
330
36
100
AcDbEntity
  8
0
  6
ByBlock
 62
     0
370
    -2
100
AcDbLine
 10
34.82872620515504
 20
29.050773
 30
0.0
 11
35.49859870515504
 21
31.550773
 31
0.0
  0
LINE
  5
A5F
330
36
100
AcDbEntity
  8
0
  6
ByBlock
 62
     0
370
    -2
100
AcDbLine
 10
35.49859870515504
 20
31.550773
 30
0.0
 11
36.16847120515504
 21
29.050773
 31
0.0
  0
LINE
  5
A60
330
36
100
AcDbEntity
  8
0
  6
ByBlock
 62
     0
370
    -2
100
AcDbLine
 10
35.49859870515504
 20
31.550773
 30
0.0
 11
35.49859870515504
 21
29.050773
 31
0.0
  0
ENDSEC
  0
SECTION
  2
OBJECTS
  0
DICTIONARY
  5
C
330
0
100
AcDbDictionary
281
     1
  3
ACAD_2007HEADERVARS_RT
350
A64
  3
ACAD_COLOR
350
2F
  3
ACAD_GROUP
350
D
  3
ACAD_LAYOUT
350
2E
  3
ACAD_MATERIAL
350
10
  3
ACAD_MLEADERSTYLE
350
685
  3
ACAD_MLINESTYLE
350
2B
  3
ACAD_PLOTSETTINGS
350
2D
  3
ACAD_PLOTSTYLENAME
350
E
  3
ACAD_SCALELIST
350
673
  3
ACAD_TABLESTYLE
350
30
  3
ACAD_VISUALSTYLE
350
14
  3
ACDB_RECOMPOSE_DATA
350
A62
  3
AcDbVariableDictionary
350
216
  3
DWGPROPS
350
A63
  0
DICTIONARY
  5
2BA
330
2
100
AcDbDictionary
280
     1
281
     1
  3
ACAD_LAYERSTATES
360
2BB
  0
DICTIONARY
  5
6B7
330
25
100
AcDbDictionary
280
     1
281
     1
  3
ADSK_XREC_LAYER_RECONCILED
360
6B8
  0
DICTIONARY
  5
473
330
36
100
AcDbDictionary
280
     1
281
     1
  3
ACAD_SORTENTS
360
474
  0
DICTIONARY
  5
A64
102
{ACAD_REACTORS
330
C
102
}
330
C
100
AcDbDictionary
281
     1
  3
DIMARCSYM
350
A66
  3
DIMFXL
350
A65
  3
DIMJOGANG
350
A67
  0
DICTIONARY
  5
2F
102
{ACAD_REACTORS
330
C
102
}
330
C
100
AcDbDictionary
281
     1
  0
DICTIONARY
  5
D
102
{ACAD_REACTORS
330
C
102
}
330
C
100
AcDbDictionary
281
     1
  0
DICTIONARY
  5
2E
102
{ACAD_REACTORS
330
C
102
}
330
C
100
AcDbDictionary
281
     1
  3
Model
350
39
  3
レイアウト1
350
35
  0
DICTIONARY
  5
10
102
{ACAD_REACTORS
330
C
102
}
330
C
100
AcDbDictionary
281
     1
  3
ByBlock
350
12
  3
ByLayer
350
11
  3
Global
350
13
  0
DICTIONARY
  5
685
102
{ACAD_REACTORS
330
C
102
}
330
C
100
AcDbDictionary
281
     1
  3
Standard
350
686
  0
DICTIONARY
  5
2B
102
{ACAD_REACTORS
330
C
102
}
330
C
100
AcDbDictionary
281
     1
  3
Standard
350
2C
  0
DICTIONARY
  5
2D
102
{ACAD_REACTORS
330
C
102
}
330
C
100
AcDbDictionary
281
     1
  0
ACDBDICTIONARYWDFLT
  5
E
102
{ACAD_REACTORS
330
C
102
}
330
C
100
AcDbDictionary
281
     1
  3
Normal
350
F
100
AcDbDictionaryWithDefault
340
F
  0
DICTIONARY
  5
673
102
{ACAD_REACTORS
330
C
102
}
330
C
100
AcDbDictionary
281
     1
  3
A0
350
674
  3
A1
350
675
  3
A2
350
676
  3
A3
350
677
  3
A4
350
678
  3
A5
350
679
  3
A6
350
67A
  3
A7
350
67B
  3
A8
350
67C
  3
A9
350
67D
  3
B0
350
67E
  3
B1
350
67F
  3
B2
350
680
  3
B3
350
681
  3
B4
350
682
  3
B5
350
683
  3
B6
350
684
  0
DICTIONARY
  5
30
102
{ACAD_REACTORS
330
C
102
}
330
C
100
AcDbDictionary
281
     1
  3
Standard
350
31
  0
DICTIONARY
  5
14
102
{ACAD_REACTORS
330
C
102
}
330
C
100
AcDbDictionary
281
     1
  3
2dWireframe
350
1A
  3
3D Hidden
350
1C
  3
3dWireframe
350
1B
  3
Basic
350
19
  3
Brighten
350
20
  3
ColorChange
350
24
  3
Conceptual
350
1D
  3
Dim
350
1F
  3
EdgeColorOff
350
672
  3
Facepattern
350
23
  3
Flat
350
15
  3
FlatWithEdges
350
16
  3
Gouraud
350
17
  3
GouraudWithEdges
350
18
  3
Hidden
350
66A
  3
JitterOff
350
670
  3
Linepattern
350
22
  3
OverhangOff
350
671
  3
Realistic
350
1E
  3
Shaded
350
66F
  3
Shaded with edges
350
66E
  3
Shades of Gray
350
66B
  3
Sketchy
350
66C
  3
Thicken
350
21
  3
Wireframe
350
669
  3
X-Ray
350
66D
  0
XRECORD
  5
A62
102
{ACAD_REACTORS
330
C
102
}
330
C
100
AcDbXrecord
280
     1
 90
        1
330
31
  0
DICTIONARY
  5
216
102
{ACAD_REACTORS
330
C
102
}
330
C
100
AcDbDictionary
281
     1
  3
CANNOSCALE
350
6BC
  3
CMLEADERSTYLE
350
6BB
  3
CTABLESTYLE
350
217
  3
DIMASSOC
350
58F
  3
INDEXCTL
350
58E
  3
SORTENTS
350
58D
  3
XCLIPFRAME
350
9BD
  0
XRECORD
  5
A63
102
{ACAD_REACTORS
330
C
102
}
330
C
100
AcDbXrecord
280
     1
  1
DWGPROPS COOKIE
  2

  3

  4

  6

  7

  8
imamura
  9

300
=
301
=
302
=
303
=
304
=
305
=
306
=
307
=
308
=
309
=
 40
0.1424214930555555
 41
2455541.61901059
 42
2457030.748400775
  1

 90
        0
  0
DICTIONARY
  5
2BB
102
{ACAD_REACTORS
330
2BA
102
}
330
2BA
100
AcDbDictionary
281
     1
  0
XRECORD
  5
6B8
102
{ACAD_REACTORS
330
6B7
102
}
330
6B7
100
AcDbXrecord
280
     1
290
     1
  0
SORTENTSTABLE
  5
474
102
{ACAD_REACTORS
330
473
102
}
330
473
100
AcDbSortentsTable
330
36
331
1AE
  5
1AE
331
844
  5
860
331
1AA
  5
1AA
331
87F
  5
89C
331
840
  5
85C
331
1A6
  5
1A6
331
20D
  5
20D
331
87B
  5
898
331
83C
  5
858
331
1A2
  5
1A2
331
16D
  5
16D
331
838
  5
854
331
213
  5
213
331
169
  5
169
331
A5E
  5
533
331
A5A
  5
53C
331
A27
  5
A09
331
A23
  5
8CB
331
8BD
  5
A52
331
8B9
  5
A4E
331
8B5
  5
A4A
331
8B1
  5
A46
331
877
  5
894
331
19E
  5
19E
331
205
  5
205
331
873
  5
88F
331
64C
  5
851
331
19A
  5
19A
331
86F
  5
88B
331
1FD
  5
1FD
331
86B
  5
887
331
58C
  5
84F
331
192
  5
192
331
1F9
  5
1F9
331
A56
  5
545
331
89
  5
89
331
A1F
  5
8C7
331
A4E
  5
52E
331
A1B
  5
8C3
331
A17
  5
8BF
331
A13
  5
8BB
331
8AD
  5
A42
331
8A9
  5
A3E
331
8A5
  5
A3A
331
8A1
  5
A36
331
867
  5
883
331
863
  5
87F
331
18A
  5
18A
331
85F
  5
87B
331
85B
  5
877
331
544
  5
847
331
182
  5
182
331
1E9
  5
1E9
331
540
  5
843
331
A46
  5
53E
331
A42
  5
A24
331
A3E
  5
A20
331
A0F
  5
8B7
331
A3A
  5
A1C
331
A0B
  5
8B3
331
A07
  5
8AF
331
89D
  5
A32
331
899
  5
A2E
331
895
  5
A2A
331
857
  5
873
331
17E
  5
17E
331
1BD
  5
1BD
331
853
  5
86F
331
53C
  5
83F
331
52E
  5
58A
331
17A
  5
17A
331
84F
  5
86B
331
538
  5
83B
331
176
  5
176
331
84B
  5
867
331
534
  5
64E
331
1B1
  5
1B1
331
A36
  5
A18
331
530
  5
58C
331
A32
  5
A14
331
A2E
  5
A10
331
A2A
  5
A0C
331
88D
  5
8AA
331
8C8
  5
A5D
331
889
  5
8A6
331
8C4
  5
A59
331
885
  5
8A2
331
8C0
  5
A55
331
881
  5
89E
331
847
  5
863
331
1AD
  5
1AD
331
843
  5
85F
331
1A9
  5
1A9
331
87E
  5
89B
331
83F
  5
85B
331
1A5
  5
1A5
331
87A
  5
897
331
83B
  5
857
331
1A1
  5
1A1
331
16C
  5
16C
331
208
  5
208
331
212
  5
212
331
168
  5
168
331
A5D
  5
53B
331
A59
  5
542
331
A26
  5
A08
331
A22
  5
8CA
331
8BC
  5
A51
331
8B8
  5
A4D
331
8B4
  5
A49
331
8B0
  5
A45
331
204
  5
204
331
876
  5
893
331
19D
  5
19D
331
200
  5
200
331
872
  5
88E
331
64B
  5
850
331
164
  5
164
331
199
  5
199
331
86E
  5
88A
331
1FC
  5
1FC
331
86A
  5
886
331
58B
  5
84E
331
191
  5
191
331
1F8
  5
1F8
331
A55
  5
544
331
A1E
  5
8C6
331
A4D
  5
52D
331
A1A
  5
8C2
331
A16
  5
8BE
331
A12
  5
8BA
331
8AC
  5
A41
331
8A8
  5
A3D
331
8A4
  5
A39
331
8A0
  5
A35
331
866
  5
882
331
577
  5
84C
331
1F4
  5
1F4
331
862
  5
87E
331
85E
  5
87A
331
547
  5
84A
331
1EC
  5
1EC
331
85A
  5
876
331
543
  5
846
331
A45
  5
53D
331
A41
  5
A23
331
A3D
  5
A1F
331
A0E
  5
8B6
331
A39
  5
A1B
331
A0A
  5
8B2
331
A06
  5
8AE
331
89C
  5
A31
331
898
  5
A2D
331
894
  5
A29
331
890
  5
8AD
331
856
  5
872
331
53F
  5
842
331
17D
  5
17D
331
1BC
  5
1BC
331
852
  5
86E
331
53B
  5
83E
331
52D
  5
577
331
179
  5
179
331
84E
  5
86A
331
537
  5
83A
331
175
  5
175
331
84A
  5
866
331
533
  5
64D
331
171
  5
171
331
1B0
  5
1B0
331
A35
  5
A17
331
548
  5
84B
331
A31
  5
A13
331
A2D
  5
A0F
331
A29
  5
A0B
331
8CB
  5
A60
331
88C
  5
8A9
331
8C7
  5
A5C
331
888
  5
8A5
331
8C3
  5
A58
331
884
  5
8A1
331
880
  5
89D
331
846
  5
862
331
1AC
  5
1AC
331
842
  5
85E
331
1A8
  5
1A8
331
20F
  5
20F
331
87D
  5
89A
331
83E
  5
85A
331
1A4
  5
1A4
331
16F
  5
16F
331
20B
  5
20B
331
879
  5
896
331
83A
  5
856
331
1A0
  5
1A0
331
16B
  5
16B
331
211
  5
211
331
A60
  5
535
331
A5C
  5
53A
331
A58
  5
541
331
A25
  5
A07
331
A21
  5
8C9
331
8BF
  5
A54
331
8BB
  5
A50
331
8B7
  5
A4C
331
8B3
  5
A48
331
203
  5
203
331
875
  5
892
331
64E
  5
853
331
19C
  5
19C
331
167
  5
167
331
871
  5
88D
331
1FF
  5
1FF
331
86D
  5
889
331
194
  5
194
331
1FB
  5
1FB
331
869
  5
885
331
58A
  5
84D
331
190
  5
190
331
A54
  5
543
331
A1D
  5
8C5
331
A4C
  5
52C
331
A19
  5
8C1
331
A15
  5
8BD
331
A11
  5
8B9
331
8AF
  5
A44
331
8AB
  5
A40
331
8A7
  5
A3C
331
8A3
  5
A38
331
1F7
  5
1F7
331
865
  5
881
331
861
  5
87D
331
1EF
  5
1EF
331
85D
  5
879
331
546
  5
849
331
184
  5
184
331
1EB
  5
1EB
331
859
  5
875
331
542
  5
845
331
180
  5
180
331
A44
  5
A26
331
A40
  5
A22
331
A3C
  5
A1E
331
A0D
  5
8B5
331
A38
  5
A1A
331
A09
  5
8B1
331
89F
  5
A34
331
89B
  5
A30
331
897
  5
A2C
331
893
  5
A28
331
855
  5
871
331
53E
  5
841
331
17C
  5
17C
331
1BB
  5
1BB
331
851
  5
86D
331
53A
  5
83D
331
52C
  5
548
331
178
  5
178
331
84D
  5
869
331
536
  5
839
331
174
  5
174
331
849
  5
865
331
532
  5
64C
331
170
  5
170
331
A34
  5
A16
331
A30
  5
A12
331
A2C
  5
A0E
331
A28
  5
A0A
331
88F
  5
8AC
331
8CA
  5
A5F
331
88B
  5
8A8
331
8C6
  5
A5B
331
887
  5
8A4
331
8C2
  5
A57
331
883
  5
8A0
331
1AF
  5
1AF
331
845
  5
861
331
1AB
  5
1AB
331
841
  5
85D
331
1A7
  5
1A7
331
87C
  5
899
331
83D
  5
859
331
1A3
  5
1A3
331
16E
  5
16E
331
878
  5
895
331
839
  5
855
331
16A
  5
16A
331
210
  5
210
331
A5F
  5
534
331
A5B
  5
539
331
A24
  5
A06
331
A20
  5
8C8
331
8BE
  5
A53
331
8BA
  5
A4F
331
8B6
  5
A4B
331
8B2
  5
A47
331
19F
  5
19F
331
206
  5
206
331
874
  5
890
331
64D
  5
852
331
19B
  5
19B
331
166
  5
166
331
870
  5
88C
331
162
  5
162
331
1FE
  5
1FE
331
86C
  5
888
331
193
  5
193
331
1FA
  5
1FA
331
868
  5
884
331
A57
  5
540
331
A53
  5
546
331
A4F
  5
52F
331
A1C
  5
8C4
331
A4B
  5
52B
331
A18
  5
8C0
331
A14
  5
8BC
331
A10
  5
8B8
331
8AE
  5
A43
331
8AA
  5
A3F
331
8A6
  5
A3B
331
8A2
  5
A37
331
1F6
  5
1F6
331
864
  5
880
331
1F2
  5
1F2
331
860
  5
87C
331
1EE
  5
1EE
331
85C
  5
878
331
545
  5
848
331
1EA
  5
1EA
331
858
  5
874
331
541
  5
844
331
A47
  5
53F
331
A43
  5
A25
331
A3F
  5
A21
331
A3B
  5
A1D
331
A0C
  5
8B4
331
A08
  5
8B0
331
89E
  5
A33
331
89A
  5
A2F
331
896
  5
A2B
331
892
  5
A27
331
17F
  5
17F
331
854
  5
870
331
53D
  5
840
331
52F
  5
58B
331
17B
  5
17B
331
850
  5
86C
331
539
  5
83C
331
52B
  5
547
331
177
  5
177
331
84C
  5
868
331
535
  5
838
331
848
  5
864
331
A37
  5
A19
331
531
  5
64B
331
A33
  5
A15
331
A2F
  5
A11
331
A2B
  5
A0D
331
88E
  5
8AB
331
8C9
  5
A5E
331
88A
  5
8A7
331
8C5
  5
A5A
331
886
  5
8A3
331
8C1
  5
A56
331
882
  5
89F
  0
XRECORD
  5
A66
102
{ACAD_REACTORS
330
A64
102
}
330
A64
100
AcDbXrecord
280
     1
 70
     2
  0
XRECORD
  5
A65
102
{ACAD_REACTORS
330
A64
102
}
330
A64
100
AcDbXrecord
280
     1
 40
1.25
  0
XRECORD
  5
A67
102
{ACAD_REACTORS
330
A64
102
}
330
A64
100
AcDbXrecord
280
     1
 40
1.570796326794896
  0
LAYOUT
  5
39
102
{ACAD_XDICTIONARY
360
A8B
102
}
102
{ACAD_REACTORS
330
2E
102
}
330
2E
100
AcDbPlotSettings
  1

  2
none_device
  4
Letter_(8.50_x_11.00_Inches)
  6

 40
6.349999904632567
 41
6.349999904632567
 42
6.350006103515625
 43
6.350006103515625
 44
215.8999938964844
 45
279.3999938964844
 46
0.0
 47
0.0
 48
0.0
 49
0.0
140
0.0
141
0.0
142
1.0
143
66.27559065033087
 70
 11952
 72
     0
 73
     1
 74
     0
  7

 75
     0
147
0.0150885113235126
148
10248.73015281911
149
4803.544694918504
100
AcDbLayout
  1
Model
 70
     1
 71
     0
 10
0.0
 20
0.0
 11
12.0
 21
9.0
 12
0.0
 22
0.0
 32
0.0
 14
0.0
 24
0.0
 34
0.0
 15
0.0
 25
0.0
 35
0.0
146
0.0
 13
0.0
 23
0.0
 33
0.0
 16
1.0
 26
0.0
 36
0.0
 17
0.0
 27
1.0
 37
0.0
 76
     0
330
36
331
56
1001
ACAD_PSEXT
1000
なし
1000
なし
1000
適切ではありません
1000
新しいプロッタ環境設定名を選択しない限り、レイアウトは印刷されません。
1070
     0
  0
LAYOUT
  5
35
102
{ACAD_XDICTIONARY
360
A89
102
}
102
{ACAD_REACTORS
330
2E
102
}
330
2E
100
AcDbPlotSettings
  1

  2
DocuPrint 305
  4

  6

 40
0.0
 41
0.0
 42
0.0
 43
0.0
 44
0.0
 45
0.0
 46
0.0
 47
0.0
 48
0.0
 49
0.0
140
0.0
141
0.0
142
1.0
143
1.0
 70
   688
 72
     0
 73
     0
 74
     5
  7

 75
    16
147
1.0
148
0.0
149
0.0
100
AcDbLayout
  1
レイアウト1
 70
     1
 71
     1
 10
0.0
 20
0.0
 11
12.0
 21
9.0
 12
0.0
 22
0.0
 32
0.0
 14
1.000000000000000E+20
 24
1.000000000000000E+20
 34
1.000000000000000E+20
 15
-1.000000000000000E+20
 25
-1.000000000000000E+20
 35
-1.000000000000000E+20
146
0.0
 13
0.0
 23
0.0
 33
0.0
 16
1.0
 26
0.0
 36
0.0
 17
0.0
 27
1.0
 37
0.0
 76
     0
330
32
  0
MATERIAL
  5
12
102
{ACAD_XDICTIONARY
360
5E2
102
}
102
{ACAD_REACTORS
330
10
102
}
330
10
100
AcDbMaterial
  1
ByBlock
  0
MATERIAL
  5
11
102
{ACAD_XDICTIONARY
360
5E0
102
}
102
{ACAD_REACTORS
330
10
102
}
330
10
100
AcDbMaterial
  1
ByLayer
  0
MATERIAL
  5
13
102
{ACAD_XDICTIONARY
360
5E4
102
}
102
{ACAD_REACTORS
330
10
102
}
330
10
100
AcDbMaterial
  1
Global
  0
MLEADERSTYLE
  5
686
102
{ACAD_REACTORS
330
685
102
}
330
685
100
AcDbMLeaderStyle
170
     2
171
     1
172
     0
 90
        2
 40
0.0
 41
0.0
173
     1
 91
-1056964608
340
28
 92
       -2
290
     1
 42
0.09
291
     1
 43
0.36
  3
Standard
 44
0.18
300

342
26
174
     1
178
     6
175
     1
176
     0
 93
-1056964608
 45
0.18
292
     0
297
     0
 46
0.18
 94
-1056964608
 47
1.0
 49
1.0
140
1.0
293
     1
141
0.0
294
     1
177
     0
142
1.0
295
     0
296
     0
143
0.125
1001
ACAD_MLEADERVER
1070
     2
  0
MLINESTYLE
  5
2C
102
{ACAD_REACTORS
330
2B
102
}
330
2B
100
AcDbMlineStyle
  2
STANDARD
 70
     0
  3

 62
   256
 51
90.0
 52
90.0
 71
     2
 49
0.5
 62
   256
  6
BYLAYER
 49
-0.5
 62
   256
  6
BYLAYER
  0
ACDBPLACEHOLDER
  5
F
102
{ACAD_REACTORS
330
E
102
}
330
E
  0
SCALE
  5
674
102
{ACAD_REACTORS
330
673
102
}
330
673
100
AcDbScale
 70
     0
300
1:1
140
1.0
141
1.0
290
     1
  0
SCALE
  5
675
102
{ACAD_REACTORS
330
673
102
}
330
673
100
AcDbScale
 70
     0
300
1/128" = 1'-0"
140
0.0078125
141
12.0
290
     0
  0
SCALE
  5
676
102
{ACAD_REACTORS
330
673
102
}
330
673
100
AcDbScale
 70
     0
300
1/64" = 1'-0"
140
0.015625
141
12.0
290
     0
  0
SCALE
  5
677
102
{ACAD_REACTORS
330
673
102
}
330
673
100
AcDbScale
 70
     0
300
1/32" = 1'-0"
140
0.03125
141
12.0
290
     0
  0
SCALE
  5
678
102
{ACAD_REACTORS
330
673
102
}
330
673
100
AcDbScale
 70
     0
300
1/16" = 1'-0"
140
0.0625
141
12.0
290
     0
  0
SCALE
  5
679
102
{ACAD_REACTORS
330
673
102
}
330
673
100
AcDbScale
 70
     0
300
3/32" = 1'-0"
140
0.09375
141
12.0
290
     0
  0
SCALE
  5
67A
102
{ACAD_REACTORS
330
673
102
}
330
673
100
AcDbScale
 70
     0
300
1/8" = 1'-0"
140
0.125
141
12.0
290
     0
  0
SCALE
  5
67B
102
{ACAD_REACTORS
330
673
102
}
330
673
100
AcDbScale
 70
     0
300
3/16" = 1'-0"
140
0.1875
141
12.0
290
     0
  0
SCALE
  5
67C
102
{ACAD_REACTORS
330
673
102
}
330
673
100
AcDbScale
 70
     0
300
1/4" = 1'-0"
140
0.25
141
12.0
290
     0
  0
SCALE
  5
67D
102
{ACAD_REACTORS
330
673
102
}
330
673
100
AcDbScale
 70
     0
300
3/8" = 1'-0"
140
0.375
141
12.0
290
     0
  0
SCALE
  5
67E
102
{ACAD_REACTORS
330
673
102
}
330
673
100
AcDbScale
 70
     0
300
1/2" = 1'-0"
140
0.5
141
12.0
290
     0
  0
SCALE
  5
67F
102
{ACAD_REACTORS
330
673
102
}
330
673
100
AcDbScale
 70
     0
300
3/4" = 1'-0"
140
0.75
141
12.0
290
     0
  0
SCALE
  5
680
102
{ACAD_REACTORS
330
673
102
}
330
673
100
AcDbScale
 70
     0
300
1" = 1'-0"
140
1.0
141
12.0
290
     0
  0
SCALE
  5
681
102
{ACAD_REACTORS
330
673
102
}
330
673
100
AcDbScale
 70
     0
300
1-1/2" = 1'-0"
140
1.5
141
12.0
290
     0
  0
SCALE
  5
682
102
{ACAD_REACTORS
330
673
102
}
330
673
100
AcDbScale
 70
     0
300
3" = 1'-0"
140
3.0
141
12.0
290
     0
  0
SCALE
  5
683
102
{ACAD_REACTORS
330
673
102
}
330
673
100
AcDbScale
 70
     0
300
6" = 1'-0"
140
6.0
141
12.0
290
     0
  0
SCALE
  5
684
102
{ACAD_REACTORS
330
673
102
}
330
673
100
AcDbScale
 70
     0
300
1'-0" = 1'-0"
140
12.0
141
12.0
290
     0
  0
TABLESTYLE
  5
31
102
{ACAD_XDICTIONARY
360
6BE
102
}
102
{ACAD_REACTORS
330
30
102
}
330
30
100
AcDbTableStyle
  3
Standard
 70
     0
 71
     0
 40
0.06
 41
0.06
280
     0
281
     0
  7
STANDARD
140
0.18
170
     2
 62
     0
 63
     7
283
     0
274
    -2
284
     1
 64
     0
275
    -2
285
     1
 65
     0
276
    -2
286
     1
 66
     0
277
    -2
287
     1
 67
     0
278
    -2
288
     1
 68
     0
279
    -2
289
     1
 69
     0
  7
STANDARD
140
0.25
170
     5
 62
     0
 63
     7
283
     0
274
    -2
284
     1
 64
     0
275
    -2
285
     1
 65
     0
276
    -2
286
     1
 66
     0
277
    -2
287
     1
 67
     0
278
    -2
288
     1
 68
     0
279
    -2
289
     1
 69
     0
  7
STANDARD
140
0.18
170
     5
 62
     0
 63
     7
283
     0
274
    -2
284
     1
 64
     0
275
    -2
285
     1
 65
     0
276
    -2
286
     1
 66
     0
277
    -2
287
     1
 67
     0
278
    -2
288
     1
 68
     0
279
    -2
289
     1
 69
     0
  0
VISUALSTYLE
  5
1A
102
{ACAD_XDICTIONARY
360
A72
102
}
102
{ACAD_REACTORS
330
14
102
}
330
14
100
AcDbVisualStyle
  2

 70
     4
 71
     0
 72
     2
 73
     0
 90
        0
 40
-0.6
 41
-30.0
 62
     5
 63
     7
 74
     1
 91
        4
 64
     7
 65
   257
 75
     1
175
     1
 42
1.0
 92
        0
 66
   257
 43
1.0
 76
     1
 77
     6
 78
     2
 67
     7
 79
     5
170
     0
171
     0
290
     0
174
     0
 93
        1
 44
0.0
173
     0
291
     0
 45
0.0
1001
ACAD
1000
AcDbSavedByObjectVersion
1070
     0
  0
VISUALSTYLE
  5
1C
102
{ACAD_XDICTIONARY
360
A76
102
}
102
{ACAD_REACTORS
330
14
102
}
330
14
100
AcDbVisualStyle
  2

 70
     6
 71
     1
 72
     2
 73
     2
 90
        0
 40
-0.6
 41
-30.0
 62
     5
 63
     7
 74
     2
 91
        2
 64
     7
 65
   257
 75
     2
175
     1
 42
40.0
 92
        0
 66
   257
 43
1.0
 76
     1
 77
     6
 78
     2
 67
     7
 79
     3
170
     0
171
     0
290
     0
174
     0
 93
        1
 44
0.0
173
     0
291
     0
 45
0.0
1001
ACAD
1000
AcDbSavedByObjectVersion
1070
     0
  0
VISUALSTYLE
  5
1B
102
{ACAD_XDICTIONARY
360
A74
102
}
102
{ACAD_REACTORS
330
14
102
}
330
14
100
AcDbVisualStyle
  2

 70
     5
 71
     0
 72
     2
 73
     0
 90
        0
 40
-0.6
 41
-30.0
 62
     5
 63
     7
 74
     1
 91
        4
 64
     7
 65
   257
 75
     1
175
     1
 42
1.0
 92
        0
 66
   257
 43
1.0
 76
     1
 77
     6
 78
     2
 67
     7
 79
     5
170
     0
171
     0
290
     0
174
     0
 93
        1
 44
0.0
173
     0
291
     0
 45
0.0
1001
ACAD
1000
AcDbSavedByObjectVersion
1070
     0
  0
VISUALSTYLE
  5
19
102
{ACAD_XDICTIONARY
360
A70
102
}
102
{ACAD_REACTORS
330
14
102
}
330
14
100
AcDbVisualStyle
  2

 70
     7
 71
     1
 72
     0
 73
     1
 90
        0
 40
-0.6
 41
-30.0
 62
     5
 63
     7
 74
     0
 91
        4
 64
     7
 65
   257
 75
     1
175
     1
 42
1.0
 92
        8
 66
     7
 43
1.0
 76
     1
 77
     6
 78
     2
 67
     7
 79
     5
170
     0
171
     0
290
     0
174
     0
 93
        1
 44
0.0
173
     0
291
     1
 45
0.0
1001
ACAD
1000
AcDbSavedByObjectVersion
1070
     0
  0
VISUALSTYLE
  5
20
102
{ACAD_XDICTIONARY
360
A7E
102
}
102
{ACAD_REACTORS
330
14
102
}
330
14
100
AcDbVisualStyle
  2

 70
    12
 71
     2
 72
     2
 73
     0
 90
        0
 40
-0.6
 41
-30.0
 62
     5
 63
     7
 74
     1
 91
        4
 64
     7
 65
   257
 75
     1
175
     1
 42
1.0
 92
        8
 66
     7
 43
1.0
 76
     1
 77
     6
 78
     2
 67
     7
 79
     5
170
     0
171
     0
290
     0
174
     0
 93
        1
 44
50.0
173
     0
291
     1
 45
0.0
1001
ACAD
1000
AcDbSavedByObjectVersion
1070
     0
  0
VISUALSTYLE
  5
24
102
{ACAD_XDICTIONARY
360
A86
102
}
102
{ACAD_REACTORS
330
14
102
}
330
14
100
AcDbVisualStyle
  2

 70
    16
 71
     2
 72
     2
 73
     3
 90
        0
 40
-0.6
 41
-30.0
 62
     5
 63
     8
 74
     1
 91
        4
 64
     7
 65
   257
 75
     1
175
     1
 42
1.0
 92
        8
 66
     8
 43
1.0
 76
     1
 77
     6
 78
     2
 67
     7
 79
     5
170
     0
171
     0
290
     0
174
     0
 93
        1
 44
0.0
173
     0
291
     1
 45
0.0
1001
ACAD
1000
AcDbSavedByObjectVersion
1070
     0
  0
VISUALSTYLE
  5
1D
102
{ACAD_XDICTIONARY
360
A78
102
}
102
{ACAD_REACTORS
330
14
102
}
330
14
100
AcDbVisualStyle
  2

 70
     9
 71
     3
 72
     2
 73
     0
 90
        0
 40
-0.6
 41
-30.0
 62
     5
 63
     7
 74
     2
 91
        2
 64
     7
 65
   257
 75
     1
175
     1
 42
40.0
 92
        8
 66
     7
 43
1.0
 76
     1
 77
     6
 78
     2
 67
     7
 79
     3
170
     0
171
     0
290
     0
174
     0
 93
        1
 44
0.0
173
     0
291
     0
 45
0.0
1001
ACAD
1000
AcDbSavedByObjectVersion
1070
     0
  0
VISUALSTYLE
  5
1F
102
{ACAD_XDICTIONARY
360
A7C
102
}
102
{ACAD_REACTORS
330
14
102
}
330
14
100
AcDbVisualStyle
  2

 70
    11
 71
     2
 72
     2
 73
     0
 90
        0
 40
-0.6
 41
-30.0
 62
     5
 63
     7
 74
     1
 91
        4
 64
     7
 65
   257
 75
     1
175
     1
 42
1.0
 92
        8
 66
     7
 43
1.0
 76
     1
 77
     6
 78
     2
 67
     7
 79
     5
170
     0
171
     0
290
     0
174
     0
 93
        1
 44
-50.0
173
     0
291
     1
 45
0.0
1001
ACAD
1000
AcDbSavedByObjectVersion
1070
     0
  0
VISUALSTYLE
  5
672
102
{ACAD_XDICTIONARY
360
A9F
102
}
102
{ACAD_REACTORS
330
14
102
}
330
14
100
AcDbVisualStyle
  2

 70
    22
 71
     2
 72
     2
 73
     0
 90
        0
 40
-0.6
 41
-30.0
 62
     5
 63
     7
 74
     1
 91
        4
 64
     7
 65
   257
 75
     1
175
     1
 42
1.0
 92
        8
 66
     7
 43
1.0
 76
     1
 77
     6
 78
     2
 67
     7
 79
     5
170
     0
171
     0
290
     0
174
     0
 93
        1
 44
0.0
173
     0
291
     1
 45
0.0
1001
ACAD
1000
AcDbSavedByObjectVersion
1070
     0
  0
VISUALSTYLE
  5
23
102
{ACAD_XDICTIONARY
360
A84
102
}
102
{ACAD_REACTORS
330
14
102
}
330
14
100
AcDbVisualStyle
  2

 70
    15
 71
     2
 72
     2
 73
     0
 90
        0
 40
-0.6
 41
-30.0
 62
     5
 63
     7
 74
     1
 91
        4
 64
     7
 65
   257
 75
     1
175
     1
 42
1.0
 92
        8
 66
     7
 43
1.0
 76
     1
 77
     6
 78
     2
 67
     7
 79
     5
170
     0
171
     0
290
     0
174
     0
 93
        1
 44
0.0
173
     0
291
     1
 45
0.0
1001
ACAD
1000
AcDbSavedByObjectVersion
1070
     0
  0
VISUALSTYLE
  5
15
102
{ACAD_XDICTIONARY
360
A68
102
}
102
{ACAD_REACTORS
330
14
102
}
330
14
100
AcDbVisualStyle
  2

 70
     0
 71
     2
 72
     1
 73
     1
 90
        2
 40
-0.6
 41
30.0
 62
     5
 63
     7
 74
     0
 91
        4
 64
     7
 65
   257
 75
     1
175
     1
 42
1.0
 92
        8
 66
     7
 43
1.0
 76
     1
 77
     6
 78
     2
 67
     7
 79
     5
170
     0
171
     0
290
     0
174
     0
 93
       13
 44
0.0
173
     0
291
     1
 45
0.0
1001
ACAD
1000
AcDbSavedByObjectVersion
1070
     0
  0
VISUALSTYLE
  5
16
102
{ACAD_XDICTIONARY
360
A6A
102
}
102
{ACAD_REACTORS
330
14
102
}
330
14
100
AcDbVisualStyle
  2

 70
     1
 71
     2
 72
     1
 73
     1
 90
        2
 40
-0.6
 41
30.0
 62
     5
 63
     7
 74
     1
 91
        4
 64
     7
 65
   257
 75
     1
175
     1
 42
1.0
 92
        0
 66
   257
 43
1.0
 76
     1
 77
     6
 78
     2
 67
     7
 79
     5
170
     0
171
     0
290
     0
174
     0
 93
       13
 44
0.0
173
     0
291
     1
 45
0.0
1001
ACAD
1000
AcDbSavedByObjectVersion
1070
     0
  0
VISUALSTYLE
  5
17
102
{ACAD_XDICTIONARY
360
A6C
102
}
102
{ACAD_REACTORS
330
14
102
}
330
14
100
AcDbVisualStyle
  2

 70
     2
 71
     2
 72
     2
 73
     1
 90
        2
 40
-0.6
 41
30.0
 62
     5
 63
     7
 74
     0
 91
        4
 64
     7
 65
   257
 75
     1
175
     1
 42
1.0
 92
        0
 66
     7
 43
1.0
 76
     1
 77
     6
 78
     2
 67
     7
 79
     5
170
     0
171
     0
290
     0
174
     0
 93
       13
 44
0.0
173
     0
291
     1
 45
0.0
1001
ACAD
1000
AcDbSavedByObjectVersion
1070
     0
  0
VISUALSTYLE
  5
18
102
{ACAD_XDICTIONARY
360
A6E
102
}
102
{ACAD_REACTORS
330
14
102
}
330
14
100
AcDbVisualStyle
  2

 70
     3
 71
     2
 72
     2
 73
     1
 90
        2
 40
-0.6
 41
30.0
 62
     5
 63
     7
 74
     1
 91
        4
 64
     7
 65
   257
 75
     1
175
     1
 42
1.0
 92
        0
 66
   257
 43
1.0
 76
     1
 77
     6
 78
     2
 67
     7
 79
     5
170
     0
171
     0
290
     0
174
     0
 93
       13
 44
0.0
173
     0
291
     1
 45
0.0
1001
ACAD
1000
AcDbSavedByObjectVersion
1070
     0
  0
VISUALSTYLE
  5
66A
102
{ACAD_XDICTIONARY
360
A8F
102
}
102
{ACAD_REACTORS
330
14
102
}
330
14
100
AcDbVisualStyle
  2

 70
     6
 71
     1
 72
     2
 73
     2
 90
        0
 40
-0.6
 41
-30.0
 62
     5
 63
     7
 74
     2
 91
        2
 64
     7
 65
   257
 75
     2
175
     1
 42
40.0
 92
        0
 66
   257
 43
1.0
 76
     1
 77
     6
 78
     2
 67
     7
 79
     3
170
     0
171
     0
290
     0
174
     0
 93
        1
 44
0.0
173
     0
291
     0
 45
0.0
1001
ACAD
1000
AcDbSavedByObjectVersion
1070
     0
  0
VISUALSTYLE
  5
670
102
{ACAD_XDICTIONARY
360
A9B
102
}
102
{ACAD_REACTORS
330
14
102
}
330
14
100
AcDbVisualStyle
  2

 70
    20
 71
     2
 72
     2
 73
     0
 90
        0
 40
-0.6
 41
-30.0
 62
     5
 63
     7
 74
     1
 91
        4
 64
     7
 65
   257
 75
     1
175
     1
 42
1.0
 92
       10
 66
     7
 43
1.0
 76
     1
 77
     6
 78
     2
 67
     7
 79
     5
170
     0
171
     0
290
     0
174
     0
 93
        1
 44
0.0
173
     0
291
     1
 45
0.0
1001
ACAD
1000
AcDbSavedByObjectVersion
1070
     0
  0
VISUALSTYLE
  5
22
102
{ACAD_XDICTIONARY
360
A82
102
}
102
{ACAD_REACTORS
330
14
102
}
330
14
100
AcDbVisualStyle
  2

 70
    14
 71
     2
 72
     2
 73
     0
 90
        0
 40
-0.6
 41
-30.0
 62
     5
 63
     7
 74
     1
 91
        4
 64
     7
 65
   257
 75
     7
175
     7
 42
1.0
 92
        8
 66
     7
 43
1.0
 76
     1
 77
     6
 78
     2
 67
     7
 79
     5
170
     0
171
     0
290
     0
174
     0
 93
        1
 44
0.0
173
     0
291
     1
 45
0.0
1001
ACAD
1000
AcDbSavedByObjectVersion
1070
     0
  0
VISUALSTYLE
  5
671
102
{ACAD_XDICTIONARY
360
A9D
102
}
102
{ACAD_REACTORS
330
14
102
}
330
14
100
AcDbVisualStyle
  2

 70
    21
 71
     2
 72
     2
 73
     0
 90
        0
 40
-0.6
 41
-30.0
 62
     5
 63
     7
 74
     1
 91
        4
 64
     7
 65
   257
 75
     1
175
     1
 42
1.0
 92
        9
 66
     7
 43
1.0
 76
     1
 77
     6
 78
     2
 67
     7
 79
     5
170
     0
171
     0
290
     0
174
     0
 93
        1
 44
0.0
173
     0
291
     1
 45
0.0
1001
ACAD
1000
AcDbSavedByObjectVersion
1070
     0
  0
VISUALSTYLE
  5
1E
102
{ACAD_XDICTIONARY
360
A7A
102
}
102
{ACAD_REACTORS
330
14
102
}
330
14
100
AcDbVisualStyle
  2

 70
     8
 71
     2
 72
     2
 73
     0
 90
        0
 40
-0.6
 41
-30.0
 62
     5
 63
     7
 74
     1
 91
        0
 64
     7
 65
   257
 75
     1
175
     1
 42
1.0
 92
        8
 66
     8
 43
1.0
 76
     1
 77
     6
 78
     2
 67
     7
 79
     5
170
     0
171
     0
290
     0
174
     0
 93
       13
 44
0.0
173
     0
291
     0
 45
0.0
1001
ACAD
1000
AcDbSavedByObjectVersion
1070
     0
  0
VISUALSTYLE
  5
66F
102
{ACAD_XDICTIONARY
360
A99
102
}
102
{ACAD_REACTORS
330
14
102
}
330
14
100
AcDbVisualStyle
  2

 70
    27
 71
     2
 72
     2
 73
     1
 90
        2
 40
-0.6
 41
30.0
 62
     5
 63
     7
 74
     0
 91
        4
 64
     7
 65
   257
 75
     1
175
     1
 42
1.0
 92
        8
 66
   257
 43
1.0
 76
     1
 77
     6
 78
     2
 67
     8
 79
     3
170
     0
171
     0
290
     0
174
     0
 93
        5
 44
0.0
173
     0
291
     0
 45
0.0
1001
ACAD
1000
AcDbSavedByObjectVersion
1070
     0
  0
VISUALSTYLE
  5
66E
102
{ACAD_XDICTIONARY
360
A97
102
}
102
{ACAD_REACTORS
330
14
102
}
330
14
100
AcDbVisualStyle
  2

 70
    26
 71
     2
 72
     2
 73
     1
 90
        2
 40
-0.6
 41
30.0
 62
     5
 63
     7
 74
     1
 91
       10
 64
     7
 65
   257
 75
     2
175
     1
 42
1.0
 92
        8
 66
   257
 43
1.0
 76
     1
 77
     6
 78
     2
 67
     7
 79
     3
170
     0
171
     0
290
     0
174
     0
 93
        5
 44
0.0
173
     0
291
     0
 45
0.0
1001
ACAD
1000
AcDbSavedByObjectVersion
1070
     0
  0
VISUALSTYLE
  5
66B
102
{ACAD_XDICTIONARY
360
A91
102
}
102
{ACAD_REACTORS
330
14
102
}
330
14
100
AcDbVisualStyle
  2

 70
    23
 71
     2
 72
     2
 73
     3
 90
        0
 40
-0.6
 41
-30.0
 62
     5
 63
     7
 74
     2
 91
        2
 64
     7
 65
     7
 75
     1
175
     1
 42
40.0
 92
        8
 66
     7
 43
1.0
 76
     1
 77
     6
 78
     2
 67
     7
 79
     3
170
     0
171
     0
290
     0
174
     0
 93
        1
 44
0.0
173
     0
291
     0
 45
0.0
1001
ACAD
1000
AcDbSavedByObjectVersion
1070
     0
  0
VISUALSTYLE
  5
66C
102
{ACAD_XDICTIONARY
360
A93
102
}
102
{ACAD_REACTORS
330
14
102
}
330
14
100
AcDbVisualStyle
  2

 70
    24
 71
     1
 72
     2
 73
     2
 90
        0
 40
-0.6
 41
-30.0
 62
     5
 63
     7
 74
     2
 91
        2
 64
     7
 65
     7
 75
     1
175
     1
 42
40.0
 92
       11
 66
     7
 43
1.0
 76
     1
 77
     6
 78
     2
 67
     7
 79
     6
170
     0
171
     0
290
     0
174
     0
 93
        1
 44
0.0
173
     0
291
     0
 45
0.0
1001
ACAD
1000
AcDbSavedByObjectVersion
1070
     0
  0
VISUALSTYLE
  5
21
102
{ACAD_XDICTIONARY
360
A80
102
}
102
{ACAD_REACTORS
330
14
102
}
330
14
100
AcDbVisualStyle
  2

 70
    13
 71
     2
 72
     2
 73
     0
 90
        0
 40
-0.6
 41
-30.0
 62
     5
 63
     7
 74
     1
 91
        4
 64
     7
 65
   257
 75
     1
175
     1
 42
1.0
 92
       12
 66
     7
 43
1.0
 76
     1
 77
     6
 78
     2
 67
     7
 79
     5
170
     0
171
     0
290
     0
174
     0
 93
        1
 44
0.0
173
     0
291
     1
 45
0.0
1001
ACAD
1000
AcDbSavedByObjectVersion
1070
     0
  0
VISUALSTYLE
  5
669
102
{ACAD_XDICTIONARY
360
A8D
102
}
102
{ACAD_REACTORS
330
14
102
}
330
14
100
AcDbVisualStyle
  2

 70
     5
 71
     0
 72
     2
 73
     0
 90
        0
 40
-0.6
 41
-30.0
 62
     5
 63
     7
 74
     1
 91
        4
 64
     7
 65
   257
 75
     1
175
     1
 42
1.0
 92
        0
 66
   257
 43
1.0
 76
     1
 77
     6
 78
     2
 67
     7
 79
     3
170
     0
171
     0
290
     0
174
     0
 93
        1
 44
0.0
173
     0
291
     0
 45
0.0
1001
ACAD
1000
AcDbSavedByObjectVersion
1070
     0
  0
VISUALSTYLE
  5
66D
102
{ACAD_XDICTIONARY
360
A95
102
}
102
{ACAD_REACTORS
330
14
102
}
330
14
100
AcDbVisualStyle
  2

 70
    25
 71
     2
 72
     2
 73
     1
 90
        1
 40
0.5
 41
-30.0
 62
     5
 63
     7
 74
     1
 91
        0
 64
     7
 65
   257
 75
     1
175
     1
 42
1.0
 92
        8
 66
     7
 43
1.0
 76
     1
 77
     6
 78
     2
 67
     7
 79
     3
170
     0
171
     0
290
     0
174
     0
 93
       13
 44
0.0
173
     0
291
     0
 45
0.0
1001
ACAD
1000
AcDbSavedByObjectVersion
1070
     0
  0
DICTIONARYVAR
  5
6BC
102
{ACAD_REACTORS
330
216
102
}
330
216
100
DictionaryVariables
280
     0
  1
1:1
  0
DICTIONARYVAR
  5
6BB
102
{ACAD_REACTORS
330
216
102
}
330
216
100
DictionaryVariables
280
     0
  1
STANDARD
  0
DICTIONARYVAR
  5
217
102
{ACAD_REACTORS
330
216
102
}
330
216
100
DictionaryVariables
280
     0
  1
STANDARD
  0
DICTIONARYVAR
  5
58F
102
{ACAD_REACTORS
330
216
102
}
330
216
100
DictionaryVariables
280
     0
  1
1
  0
DICTIONARYVAR
  5
58E
102
{ACAD_REACTORS
330
216
102
}
330
216
100
DictionaryVariables
280
     0
  1
0
  0
DICTIONARYVAR
  5
58D
102
{ACAD_REACTORS
330
216
102
}
330
216
100
DictionaryVariables
280
     0
  1
127
  0
DICTIONARYVAR
  5
9BD
102
{ACAD_REACTORS
330
216
102
}
330
216
100
DictionaryVariables
280
     0
  1
2
  0
DICTIONARY
  5
A8B
330
39
100
AcDbDictionary
280
     1
281
     1
  3
ACAD_XREC_ROUNDTRIP
360
A8C
  0
DICTIONARY
  5
A89
330
35
100
AcDbDictionary
280
     1
281
     1
  3
ACAD_XREC_ROUNDTRIP
360
A8A
  0
DICTIONARY
  5
5E2
330
12
100
AcDbDictionary
280
     1
281
     1
  3
ACAD_XREC_ROUNDTRIP
360
5E3
  0
DICTIONARY
  5
5E0
330
11
100
AcDbDictionary
280
     1
281
     1
  3
ACAD_XREC_ROUNDTRIP
360
5E1
  0
DICTIONARY
  5
5E4
330
13
100
AcDbDictionary
280
     1
281
     1
  3
ACAD_XREC_ROUNDTRIP
360
5E5
  0
DICTIONARY
  5
6BE
330
31
100
AcDbDictionary
280
     1
281
     1
  3
ACAD_ROUNDTRIP_2008_TABLESTYLE_CELLSTYLEMAP
360
A61
  3
ACAD_XREC_ROUNDTRIP
360
A88
  0
DICTIONARY
  5
A72
330
1A
100
AcDbDictionary
280
     1
281
     1
  3
ACAD_XREC_ROUNDTRIP
360
A73
  0
DICTIONARY
  5
A76
330
1C
100
AcDbDictionary
280
     1
281
     1
  3
ACAD_XREC_ROUNDTRIP
360
A77
  0
DICTIONARY
  5
A74
330
1B
100
AcDbDictionary
280
     1
281
     1
  3
ACAD_XREC_ROUNDTRIP
360
A75
  0
DICTIONARY
  5
A70
330
19
100
AcDbDictionary
280
     1
281
     1
  3
ACAD_XREC_ROUNDTRIP
360
A71
  0
DICTIONARY
  5
A7E
330
20
100
AcDbDictionary
280
     1
281
     1
  3
ACAD_XREC_ROUNDTRIP
360
A7F
  0
DICTIONARY
  5
A86
330
24
100
AcDbDictionary
280
     1
281
     1
  3
ACAD_XREC_ROUNDTRIP
360
A87
  0
DICTIONARY
  5
A78
330
1D
100
AcDbDictionary
280
     1
281
     1
  3
ACAD_XREC_ROUNDTRIP
360
A79
  0
DICTIONARY
  5
A7C
330
1F
100
AcDbDictionary
280
     1
281
     1
  3
ACAD_XREC_ROUNDTRIP
360
A7D
  0
DICTIONARY
  5
A9F
330
672
100
AcDbDictionary
280
     1
281
     1
  3
ACAD_XREC_ROUNDTRIP
360
AA0
  0
DICTIONARY
  5
A84
330
23
100
AcDbDictionary
280
     1
281
     1
  3
ACAD_XREC_ROUNDTRIP
360
A85
  0
DICTIONARY
  5
A68
330
15
100
AcDbDictionary
280
     1
281
     1
  3
ACAD_XREC_ROUNDTRIP
360
A69
  0
DICTIONARY
  5
A6A
330
16
100
AcDbDictionary
280
     1
281
     1
  3
ACAD_XREC_ROUNDTRIP
360
A6B
  0
DICTIONARY
  5
A6C
330
17
100
AcDbDictionary
280
     1
281
     1
  3
ACAD_XREC_ROUNDTRIP
360
A6D
  0
DICTIONARY
  5
A6E
330
18
100
AcDbDictionary
280
     1
281
     1
  3
ACAD_XREC_ROUNDTRIP
360
A6F
  0
DICTIONARY
  5
A8F
330
66A
100
AcDbDictionary
280
     1
281
     1
  3
ACAD_XREC_ROUNDTRIP
360
A90
  0
DICTIONARY
  5
A9B
330
670
100
AcDbDictionary
280
     1
281
     1
  3
ACAD_XREC_ROUNDTRIP
360
A9C
  0
DICTIONARY
  5
A82
330
22
100
AcDbDictionary
280
     1
281
     1
  3
ACAD_XREC_ROUNDTRIP
360
A83
  0
DICTIONARY
  5
A9D
330
671
100
AcDbDictionary
280
     1
281
     1
  3
ACAD_XREC_ROUNDTRIP
360
A9E
  0
DICTIONARY
  5
A7A
330
1E
100
AcDbDictionary
280
     1
281
     1
  3
ACAD_XREC_ROUNDTRIP
360
A7B
  0
DICTIONARY
  5
A99
330
66F
100
AcDbDictionary
280
     1
281
     1
  3
ACAD_XREC_ROUNDTRIP
360
A9A
  0
DICTIONARY
  5
A97
330
66E
100
AcDbDictionary
280
     1
281
     1
  3
ACAD_XREC_ROUNDTRIP
360
A98
  0
DICTIONARY
  5
A91
330
66B
100
AcDbDictionary
280
     1
281
     1
  3
ACAD_XREC_ROUNDTRIP
360
A92
  0
DICTIONARY
  5
A93
330
66C
100
AcDbDictionary
280
     1
281
     1
  3
ACAD_XREC_ROUNDTRIP
360
A94
  0
DICTIONARY
  5
A80
330
21
100
AcDbDictionary
280
     1
281
     1
  3
ACAD_XREC_ROUNDTRIP
360
A81
  0
DICTIONARY
  5
A8D
330
669
100
AcDbDictionary
280
     1
281
     1
  3
ACAD_XREC_ROUNDTRIP
360
A8E
  0
DICTIONARY
  5
A95
330
66D
100
AcDbDictionary
280
     1
281
     1
  3
ACAD_XREC_ROUNDTRIP
360
A96
  0
XRECORD
  5
A8C
102
{ACAD_REACTORS
330
A8B
102
}
330
A8B
100
AcDbXrecord
280
     1
102
SHADEPLOT
 70
     0
102
SHADEPLOTRESLEVEL
 70
     2
102
SHADEPLOTCUSTOMDPI
 70
   300
  0
XRECORD
  5
A8A
102
{ACAD_REACTORS
330
A89
102
}
330
A89
100
AcDbXrecord
280
     1
102
SHADEPLOT
 70
     0
102
SHADEPLOTRESLEVEL
 70
     2
102
SHADEPLOTCUSTOMDPI
 70
   300
  0
XRECORD
  5
5E3
102
{ACAD_REACTORS
330
5E2
102
}
330
5E2
100
AcDbXrecord
280
     1
102
MATERIAL
148
0.0
149
0.0
149
0.0
 93
        0
 94
      127
282
     0
 72
     1
 77
     1
171
     1
175
     1
179
     1
273
     0
  0
XRECORD
  5
5E1
102
{ACAD_REACTORS
330
5E0
102
}
330
5E0
100
AcDbXrecord
280
     1
102
MATERIAL
148
0.0
149
0.0
149
0.0
 93
        0
 94
      127
282
     0
 72
     1
 77
     1
171
     1
175
     1
179
     1
273
     0
  0
XRECORD
  5
5E5
102
{ACAD_REACTORS
330
5E4
102
}
330
5E4
100
AcDbXrecord
280
     1
102
MATERIAL
148
0.0
149
0.0
149
0.0
 93
        0
 94
      127
282
     0
 72
     1
 77
     1
171
     1
175
     1
179
     1
273
     0
  0
CELLSTYLEMAP
  5
A61
102
{ACAD_REACTORS
330
6BE
102
}
330
6BE
100
AcDbCellStyleMap
 90
        3
300
CELLSTYLE
  1
TABLEFORMAT_BEGIN
 90
        5
170
     1
 91
        0
 92
    32768
 62
   257
 93
        1
300
CONTENTFORMAT
  1
CONTENTFORMAT_BEGIN
 90
        0
 91
        0
 92
      512
 93
        0
300

 40
0.0
140
1.0
 94
        5
 62
     0
340
26
144
0.25
309
CONTENTFORMAT_END
171
     1
301
MARGIN
  1
CELLMARGIN_BEGIN
 40
0.06
 40
0.06
 40
0.06
 40
0.06
 40
0.18
 40
0.18
309
CELLMARGIN_END
 94
        6
 95
        1
302
GRIDFORMAT
  1
GRIDFORMAT_BEGIN
 90
        0
 91
        1
 62
     0
 92
       -2
340
0
 93
        0
 40
0.045
309
GRIDFORMAT_END
 95
        2
302
GRIDFORMAT
  1
GRIDFORMAT_BEGIN
 90
        0
 91
        1
 62
     0
 92
       -2
340
0
 93
        0
 40
0.045
309
GRIDFORMAT_END
 95
        4
302
GRIDFORMAT
  1
GRIDFORMAT_BEGIN
 90
        0
 91
        1
 62
     0
 92
       -2
340
0
 93
        0
 40
0.045
309
GRIDFORMAT_END
 95
        8
302
GRIDFORMAT
  1
GRIDFORMAT_BEGIN
 90
        0
 91
        1
 62
     0
 92
       -2
340
0
 93
        0
 40
0.045
309
GRIDFORMAT_END
 95
       16
302
GRIDFORMAT
  1
GRIDFORMAT_BEGIN
 90
        0
 91
        1
 62
     0
 92
       -2
340
0
 93
        0
 40
0.045
309
GRIDFORMAT_END
 95
       32
302
GRIDFORMAT
  1
GRIDFORMAT_BEGIN
 90
        0
 91
        1
 62
     0
 92
       -2
340
0
 93
        0
 40
0.045
309
GRIDFORMAT_END
309
TABLEFORMAT_END
  1
CELLSTYLE_BEGIN
 90
        1
 91
        1
300
_TITLE
309
CELLSTYLE_END
300
CELLSTYLE
  1
TABLEFORMAT_BEGIN
 90
        5
170
     1
 91
        0
 92
        0
 62
   257
 93
        1
300
CONTENTFORMAT
  1
CONTENTFORMAT_BEGIN
 90
        0
 91
        0
 92
      512
 93
        0
300

 40
0.0
140
1.0
 94
        5
 62
     0
340
26
144
0.18
309
CONTENTFORMAT_END
171
     1
301
MARGIN
  1
CELLMARGIN_BEGIN
 40
0.06
 40
0.06
 40
0.06
 40
0.06
 40
0.18
 40
0.18
309
CELLMARGIN_END
 94
        6
 95
        1
302
GRIDFORMAT
  1
GRIDFORMAT_BEGIN
 90
        0
 91
        1
 62
     0
 92
       -2
340
0
 93
        0
 40
0.045
309
GRIDFORMAT_END
 95
        2
302
GRIDFORMAT
  1
GRIDFORMAT_BEGIN
 90
        0
 91
        1
 62
     0
 92
       -2
340
0
 93
        0
 40
0.045
309
GRIDFORMAT_END
 95
        4
302
GRIDFORMAT
  1
GRIDFORMAT_BEGIN
 90
        0
 91
        1
 62
     0
 92
       -2
340
0
 93
        0
 40
0.045
309
GRIDFORMAT_END
 95
        8
302
GRIDFORMAT
  1
GRIDFORMAT_BEGIN
 90
        0
 91
        1
 62
     0
 92
       -2
340
0
 93
        0
 40
0.045
309
GRIDFORMAT_END
 95
       16
302
GRIDFORMAT
  1
GRIDFORMAT_BEGIN
 90
        0
 91
        1
 62
     0
 92
       -2
340
0
 93
        0
 40
0.045
309
GRIDFORMAT_END
 95
       32
302
GRIDFORMAT
  1
GRIDFORMAT_BEGIN
 90
        0
 91
        1
 62
     0
 92
       -2
340
0
 93
        0
 40
0.045
309
GRIDFORMAT_END
309
TABLEFORMAT_END
  1
CELLSTYLE_BEGIN
 90
        2
 91
        1
300
_HEADER
309
CELLSTYLE_END
300
CELLSTYLE
  1
TABLEFORMAT_BEGIN
 90
        5
170
     1
 91
        0
 92
        0
 62
   257
 93
        1
300
CONTENTFORMAT
  1
CONTENTFORMAT_BEGIN
 90
        0
 91
        0
 92
      512
 93
        0
300

 40
0.0
140
1.0
 94
        2
 62
     0
340
26
144
0.18
309
CONTENTFORMAT_END
171
     1
301
MARGIN
  1
CELLMARGIN_BEGIN
 40
0.06
 40
0.06
 40
0.06
 40
0.06
 40
0.18
 40
0.18
309
CELLMARGIN_END
 94
        6
 95
        1
302
GRIDFORMAT
  1
GRIDFORMAT_BEGIN
 90
        0
 91
        1
 62
     0
 92
       -2
340
0
 93
        0
 40
0.045
309
GRIDFORMAT_END
 95
        2
302
GRIDFORMAT
  1
GRIDFORMAT_BEGIN
 90
        0
 91
        1
 62
     0
 92
       -2
340
0
 93
        0
 40
0.045
309
GRIDFORMAT_END
 95
        4
302
GRIDFORMAT
  1
GRIDFORMAT_BEGIN
 90
        0
 91
        1
 62
     0
 92
       -2
340
0
 93
        0
 40
0.045
309
GRIDFORMAT_END
 95
        8
302
GRIDFORMAT
  1
GRIDFORMAT_BEGIN
 90
        0
 91
        1
 62
     0
 92
       -2
340
0
 93
        0
 40
0.045
309
GRIDFORMAT_END
 95
       16
302
GRIDFORMAT
  1
GRIDFORMAT_BEGIN
 90
        0
 91
        1
 62
     0
 92
       -2
340
0
 93
        0
 40
0.045
309
GRIDFORMAT_END
 95
       32
302
GRIDFORMAT
  1
GRIDFORMAT_BEGIN
 90
        0
 91
        1
 62
     0
 92
       -2
340
0
 93
        0
 40
0.045
309
GRIDFORMAT_END
309
TABLEFORMAT_END
  1
CELLSTYLE_BEGIN
 90
        3
 91
        2
300
_DATA
309
CELLSTYLE_END
  0
XRECORD
  5
A88
102
{ACAD_REACTORS
330
6BE
102
}
330
6BE
100
AcDbXrecord
280
     1
102
ACAD_ROUNDTRIP_PRE2007_TABLESTYLE
 90
      512
 91
        0
  1

 92
      512
 93
        0
  2

 94
      512
 95
        0
  3

  0
XRECORD
  5
A73
102
{ACAD_REACTORS
330
A72
102
}
330
A72
100
AcDbXrecord
280
     1
102
RTVSPropertyOp0
 70
     1
102
RTVSPropertyOp1
 70
     1
102
RTVSPropertyOp2
 70
     1
102
RTVSPropertyOp3
 70
     1
102
RTVSPropertyOp4
 70
     1
102
RTVSPropertyOp5
 70
     1
102
RTVSPropertyOp6
 70
     1
102
RTVSPropertyOp7
 70
     1
102
RTVSPropertyOp8
 70
     1
102
RTVSPropertyOp9
 70
     1
102
RTVSPropertyOp10
 70
     1
102
RTVSPropertyOp11
 70
     1
102
RTVSPropertyOp12
 70
     1
102
RTVSPropertyOp13
 70
     1
102
RTVSPropertyOp14
 70
     1
102
RTVSPropertyOp15
 70
     1
102
RTVSPropertyOp16
 70
     1
102
RTVSPropertyOp17
 70
     1
102
RTVSPropertyOp18
 70
     1
102
RTVSPropertyOp19
 70
     1
102
RTVSPropertyOp20
 70
     1
102
RTVSPropertyOp21
 70
     1
102
RTVSPropertyOp22
 70
     1
102
RTVSPropertyOp23
 70
     1
102
RTVSPropertyOp24
 70
     1
102
RTVSPropertyOp25
 70
     1
102
RTVSPropertyOp26
 70
     1
102
RTVSPropertyOp27
 70
     1
102
RTVSPropertyOp28
 70
     1
102
RTVSPropertyOp29
 70
     1
102
RTVSPropertyOp30
 70
     1
102
RTVSPropertyOp31
 70
     1
102
RTVSPropertyOp32
 70
     1
  0
XRECORD
  5
A77
102
{ACAD_REACTORS
330
A76
102
}
330
A76
100
AcDbXrecord
280
     1
102
RTVSPropertyOp0
 70
     1
102
RTVSPropertyOp1
 70
     1
102
RTVSPropertyOp2
 70
     1
102
RTVSPropertyOp3
 70
     1
102
RTVSPropertyOp4
 70
     1
102
RTVSPropertyOp5
 70
     1
102
RTVSPropertyOp6
 70
     1
102
RTVSPropertyOp7
 70
     1
102
RTVSPropertyOp8
 70
     1
102
RTVSPropertyOp9
 70
     1
102
RTVSPropertyOp10
 70
     1
102
RTVSPropertyOp11
 70
     1
102
RTVSPropertyOp12
 70
     1
102
RTVSPropertyOp13
 70
     1
102
RTVSPropertyOp14
 70
     1
102
RTVSPropertyOp15
 70
     1
102
RTVSPropertyOp16
 70
     1
102
RTVSPropertyOp17
 70
     1
102
RTVSPropertyOp18
 70
     1
102
RTVSPropertyOp19
 70
     1
102
RTVSPropertyOp20
 70
     1
102
RTVSPropertyOp21
 70
     1
102
RTVSPropertyOp22
 70
     1
102
RTVSPropertyOp23
 70
     1
102
RTVSPropertyOp24
 70
     1
102
RTVSPropertyOp25
 70
     1
102
RTVSPropertyOp26
 70
     1
102
RTVSPropertyOp27
 70
     1
102
RTVSPropertyOp28
 70
     1
102
RTVSPropertyOp29
 70
     1
102
RTVSPropertyOp30
 70
     1
102
RTVSPropertyOp31
 70
     1
102
RTVSPropertyOp32
 70
     1
  0
XRECORD
  5
A75
102
{ACAD_REACTORS
330
A74
102
}
330
A74
100
AcDbXrecord
280
     1
102
RTVSPropertyOp0
 70
     1
102
RTVSPropertyOp1
 70
     1
102
RTVSPropertyOp2
 70
     1
102
RTVSPropertyOp3
 70
     1
102
RTVSPropertyOp4
 70
     1
102
RTVSPropertyOp5
 70
     1
102
RTVSPropertyOp6
 70
     1
102
RTVSPropertyOp7
 70
     1
102
RTVSPropertyOp8
 70
     1
102
RTVSPropertyOp9
 70
     1
102
RTVSPropertyOp10
 70
     1
102
RTVSPropertyOp11
 70
     1
102
RTVSPropertyOp12
 70
     1
102
RTVSPropertyOp13
 70
     1
102
RTVSPropertyOp14
 70
     1
102
RTVSPropertyOp15
 70
     1
102
RTVSPropertyOp16
 70
     1
102
RTVSPropertyOp17
 70
     1
102
RTVSPropertyOp18
 70
     1
102
RTVSPropertyOp19
 70
     1
102
RTVSPropertyOp20
 70
     1
102
RTVSPropertyOp21
 70
     1
102
RTVSPropertyOp22
 70
     1
102
RTVSPropertyOp23
 70
     1
102
RTVSPropertyOp24
 70
     1
102
RTVSPropertyOp25
 70
     1
102
RTVSPropertyOp26
 70
     1
102
RTVSPropertyOp27
 70
     1
102
RTVSPropertyOp28
 70
     1
102
RTVSPropertyOp29
 70
     1
102
RTVSPropertyOp30
 70
     1
102
RTVSPropertyOp31
 70
     1
102
RTVSPropertyOp32
 70
     1
  0
XRECORD
  5
A71
102
{ACAD_REACTORS
330
A70
102
}
330
A70
100
AcDbXrecord
280
     1
102
RTVSPropertyOp0
 70
     1
102
RTVSPropertyOp1
 70
     1
102
RTVSPropertyOp2
 70
     1
102
RTVSPropertyOp3
 70
     1
102
RTVSPropertyOp4
 70
     1
102
RTVSPropertyOp5
 70
     1
102
RTVSPropertyOp6
 70
     1
102
RTVSPropertyOp7
 70
     1
102
RTVSPropertyOp8
 70
     1
102
RTVSPropertyOp9
 70
     1
102
RTVSPropertyOp10
 70
     1
102
RTVSPropertyOp11
 70
     1
102
RTVSPropertyOp12
 70
     1
102
RTVSPropertyOp13
 70
     1
102
RTVSPropertyOp14
 70
     1
102
RTVSPropertyOp15
 70
     1
102
RTVSPropertyOp16
 70
     1
102
RTVSPropertyOp17
 70
     1
102
RTVSPropertyOp18
 70
     1
102
RTVSPropertyOp19
 70
     1
102
RTVSPropertyOp20
 70
     1
102
RTVSPropertyOp21
 70
     1
102
RTVSPropertyOp22
 70
     1
102
RTVSPropertyOp23
 70
     1
102
RTVSPropertyOp24
 70
     1
102
RTVSPropertyOp25
 70
     1
102
RTVSPropertyOp26
 70
     1
102
RTVSPropertyOp27
 70
     1
102
RTVSPropertyOp28
 70
     1
102
RTVSPropertyOp29
 70
     1
102
RTVSPropertyOp30
 70
     1
102
RTVSPropertyOp31
 70
     1
102
RTVSPropertyOp32
 70
     1
  0
XRECORD
  5
A7F
102
{ACAD_REACTORS
330
A7E
102
}
330
A7E
100
AcDbXrecord
280
     1
102
RTVSPropertyOp0
 70
     1
102
RTVSPropertyOp1
 70
     1
102
RTVSPropertyOp2
 70
     1
102
RTVSPropertyOp3
 70
     1
102
RTVSPropertyOp4
 70
     1
102
RTVSPropertyOp5
 70
     1
102
RTVSPropertyOp6
 70
     1
102
RTVSPropertyOp7
 70
     1
102
RTVSPropertyOp8
 70
     1
102
RTVSPropertyOp9
 70
     1
102
RTVSPropertyOp10
 70
     1
102
RTVSPropertyOp11
 70
     1
102
RTVSPropertyOp12
 70
     1
102
RTVSPropertyOp13
 70
     1
102
RTVSPropertyOp14
 70
     1
102
RTVSPropertyOp15
 70
     1
102
RTVSPropertyOp16
 70
     1
102
RTVSPropertyOp17
 70
     1
102
RTVSPropertyOp18
 70
     1
102
RTVSPropertyOp19
 70
     1
102
RTVSPropertyOp20
 70
     1
102
RTVSPropertyOp21
 70
     1
102
RTVSPropertyOp22
 70
     1
102
RTVSPropertyOp23
 70
     1
102
RTVSPropertyOp24
 70
     1
102
RTVSPropertyOp25
 70
     1
102
RTVSPropertyOp26
 70
     1
102
RTVSPropertyOp27
 70
     1
102
RTVSPropertyOp28
 70
     1
102
RTVSPropertyOp29
 70
     1
102
RTVSPropertyOp30
 70
     1
102
RTVSPropertyOp31
 70
     1
102
RTVSPropertyOp32
 70
     1
  0
XRECORD
  5
A87
102
{ACAD_REACTORS
330
A86
102
}
330
A86
100
AcDbXrecord
280
     1
102
RTVSPropertyOp0
 70
     1
102
RTVSPropertyOp1
 70
     1
102
RTVSPropertyOp2
 70
     1
102
RTVSPropertyOp3
 70
     1
102
RTVSPropertyOp4
 70
     1
102
RTVSPropertyOp5
 70
     1
102
RTVSPropertyOp6
 70
     1
102
RTVSPropertyOp7
 70
     1
102
RTVSPropertyOp8
 70
     1
102
RTVSPropertyOp9
 70
     1
102
RTVSPropertyOp10
 70
     1
102
RTVSPropertyOp11
 70
     1
102
RTVSPropertyOp12
 70
     1
102
RTVSPropertyOp13
 70
     1
102
RTVSPropertyOp14
 70
     1
102
RTVSPropertyOp15
 70
     1
102
RTVSPropertyOp16
 70
     1
102
RTVSPropertyOp17
 70
     1
102
RTVSPropertyOp18
 70
     1
102
RTVSPropertyOp19
 70
     1
102
RTVSPropertyOp20
 70
     1
102
RTVSPropertyOp21
 70
     1
102
RTVSPropertyOp22
 70
     1
102
RTVSPropertyOp23
 70
     1
102
RTVSPropertyOp24
 70
     1
102
RTVSPropertyOp25
 70
     1
102
RTVSPropertyOp26
 70
     1
102
RTVSPropertyOp27
 70
     1
102
RTVSPropertyOp28
 70
     1
102
RTVSPropertyOp29
 70
     1
102
RTVSPropertyOp30
 70
     1
102
RTVSPropertyOp31
 70
     1
102
RTVSPropertyOp32
 70
     1
  0
XRECORD
  5
A79
102
{ACAD_REACTORS
330
A78
102
}
330
A78
100
AcDbXrecord
280
     1
102
RTVSPropertyOp0
 70
     1
102
RTVSPropertyOp1
 70
     1
102
RTVSPropertyOp2
 70
     1
102
RTVSPropertyOp3
 70
     1
102
RTVSPropertyOp4
 70
     1
102
RTVSPropertyOp5
 70
     1
102
RTVSPropertyOp6
 70
     1
102
RTVSPropertyOp7
 70
     1
102
RTVSPropertyOp8
 70
     1
102
RTVSPropertyOp9
 70
     1
102
RTVSPropertyOp10
 70
     1
102
RTVSPropertyOp11
 70
     1
102
RTVSPropertyOp12
 70
     1
102
RTVSPropertyOp13
 70
     1
102
RTVSPropertyOp14
 70
     1
102
RTVSPropertyOp15
 70
     1
102
RTVSPropertyOp16
 70
     1
102
RTVSPropertyOp17
 70
     1
102
RTVSPropertyOp18
 70
     1
102
RTVSPropertyOp19
 70
     1
102
RTVSPropertyOp20
 70
     1
102
RTVSPropertyOp21
 70
     1
102
RTVSPropertyOp22
 70
     1
102
RTVSPropertyOp23
 70
     1
102
RTVSPropertyOp24
 70
     1
102
RTVSPropertyOp25
 70
     1
102
RTVSPropertyOp26
 70
     1
102
RTVSPropertyOp27
 70
     1
102
RTVSPropertyOp28
 70
     1
102
RTVSPropertyOp29
 70
     1
102
RTVSPropertyOp30
 70
     1
102
RTVSPropertyOp31
 70
     1
102
RTVSPropertyOp32
 70
     1
  0
XRECORD
  5
A7D
102
{ACAD_REACTORS
330
A7C
102
}
330
A7C
100
AcDbXrecord
280
     1
102
RTVSPropertyOp0
 70
     1
102
RTVSPropertyOp1
 70
     1
102
RTVSPropertyOp2
 70
     1
102
RTVSPropertyOp3
 70
     1
102
RTVSPropertyOp4
 70
     1
102
RTVSPropertyOp5
 70
     1
102
RTVSPropertyOp6
 70
     1
102
RTVSPropertyOp7
 70
     1
102
RTVSPropertyOp8
 70
     1
102
RTVSPropertyOp9
 70
     1
102
RTVSPropertyOp10
 70
     1
102
RTVSPropertyOp11
 70
     1
102
RTVSPropertyOp12
 70
     1
102
RTVSPropertyOp13
 70
     1
102
RTVSPropertyOp14
 70
     1
102
RTVSPropertyOp15
 70
     1
102
RTVSPropertyOp16
 70
     1
102
RTVSPropertyOp17
 70
     1
102
RTVSPropertyOp18
 70
     1
102
RTVSPropertyOp19
 70
     1
102
RTVSPropertyOp20
 70
     1
102
RTVSPropertyOp21
 70
     1
102
RTVSPropertyOp22
 70
     1
102
RTVSPropertyOp23
 70
     1
102
RTVSPropertyOp24
 70
     1
102
RTVSPropertyOp25
 70
     1
102
RTVSPropertyOp26
 70
     1
102
RTVSPropertyOp27
 70
     1
102
RTVSPropertyOp28
 70
     1
102
RTVSPropertyOp29
 70
     1
102
RTVSPropertyOp30
 70
     1
102
RTVSPropertyOp31
 70
     1
102
RTVSPropertyOp32
 70
     1
  0
XRECORD
  5
AA0
102
{ACAD_REACTORS
330
A9F
102
}
330
A9F
100
AcDbXrecord
280
     1
102
RTVSPropertyOp0
 70
     0
102
RTVSPropertyOp1
 70
     0
102
RTVSPropertyOp2
 70
     0
102
RTVSPropertyOp3
 70
     0
102
RTVSPropertyOp4
 70
     0
102
RTVSPropertyOp5
 70
     0
102
RTVSPropertyOp6
 70
     0
102
RTVSPropertyOp7
 70
     0
102
RTVSPropertyOp8
 70
     0
102
RTVSPropertyOp9
 70
     0
102
RTVSPropertyOp10
 70
     0
102
RTVSPropertyOp11
 70
     0
102
RTVSPropertyOp12
 70
     0
102
RTVSPropertyOp13
 70
     0
102
RTVSPropertyOp14
 70
     2
102
RTVSPropertyOp15
 70
     0
102
RTVSPropertyOp16
 70
     0
102
RTVSPropertyOp17
 70
     0
102
RTVSPropertyOp18
 70
     0
102
RTVSPropertyOp19
 70
     0
102
RTVSPropertyOp20
 70
     0
102
RTVSPropertyOp21
 70
     0
102
RTVSPropertyOp22
 70
     0
102
RTVSPropertyOp23
 70
     0
102
RTVSPropertyOp24
 70
     0
102
RTVSPropertyOp25
 70
     0
102
RTVSPropertyOp26
 70
     0
102
RTVSPropertyOp27
 70
     0
102
RTVSPropertyOp28
 70
     0
102
RTVSPropertyOp29
 70
     0
102
RTVSPropertyOp30
 70
     0
102
RTVSPropertyOp31
 70
     0
102
RTVSPropertyOp32
 70
     0
  0
XRECORD
  5
A85
102
{ACAD_REACTORS
330
A84
102
}
330
A84
100
AcDbXrecord
280
     1
102
RTVSPropertyOp0
 70
     1
102
RTVSPropertyOp1
 70
     1
102
RTVSPropertyOp2
 70
     1
102
RTVSPropertyOp3
 70
     1
102
RTVSPropertyOp4
 70
     1
102
RTVSPropertyOp5
 70
     1
102
RTVSPropertyOp6
 70
     1
102
RTVSPropertyOp7
 70
     1
102
RTVSPropertyOp8
 70
     1
102
RTVSPropertyOp9
 70
     1
102
RTVSPropertyOp10
 70
     1
102
RTVSPropertyOp11
 70
     1
102
RTVSPropertyOp12
 70
     1
102
RTVSPropertyOp13
 70
     1
102
RTVSPropertyOp14
 70
     1
102
RTVSPropertyOp15
 70
     1
102
RTVSPropertyOp16
 70
     1
102
RTVSPropertyOp17
 70
     1
102
RTVSPropertyOp18
 70
     1
102
RTVSPropertyOp19
 70
     1
102
RTVSPropertyOp20
 70
     1
102
RTVSPropertyOp21
 70
     1
102
RTVSPropertyOp22
 70
     1
102
RTVSPropertyOp23
 70
     1
102
RTVSPropertyOp24
 70
     1
102
RTVSPropertyOp25
 70
     1
102
RTVSPropertyOp26
 70
     1
102
RTVSPropertyOp27
 70
     1
102
RTVSPropertyOp28
 70
     1
102
RTVSPropertyOp29
 70
     1
102
RTVSPropertyOp30
 70
     1
102
RTVSPropertyOp31
 70
     1
102
RTVSPropertyOp32
 70
     1
  0
XRECORD
  5
A69
102
{ACAD_REACTORS
330
A68
102
}
330
A68
100
AcDbXrecord
280
     1
102
RTVSPropertyOp0
 70
     1
102
RTVSPropertyOp1
 70
     1
102
RTVSPropertyOp2
 70
     1
102
RTVSPropertyOp3
 70
     1
102
RTVSPropertyOp4
 70
     1
102
RTVSPropertyOp5
 70
     1
102
RTVSPropertyOp6
 70
     1
102
RTVSPropertyOp7
 70
     1
102
RTVSPropertyOp8
 70
     1
102
RTVSPropertyOp9
 70
     1
102
RTVSPropertyOp10
 70
     1
102
RTVSPropertyOp11
 70
     1
102
RTVSPropertyOp12
 70
     1
102
RTVSPropertyOp13
 70
     1
102
RTVSPropertyOp14
 70
     1
102
RTVSPropertyOp15
 70
     1
102
RTVSPropertyOp16
 70
     1
102
RTVSPropertyOp17
 70
     1
102
RTVSPropertyOp18
 70
     1
102
RTVSPropertyOp19
 70
     1
102
RTVSPropertyOp20
 70
     1
102
RTVSPropertyOp21
 70
     1
102
RTVSPropertyOp22
 70
     1
102
RTVSPropertyOp23
 70
     1
102
RTVSPropertyOp24
 70
     1
102
RTVSPropertyOp25
 70
     1
102
RTVSPropertyOp26
 70
     1
102
RTVSPropertyOp27
 70
     1
102
RTVSPropertyOp28
 70
     1
102
RTVSPropertyOp29
 70
     1
102
RTVSPropertyOp30
 70
     1
102
RTVSPropertyOp31
 70
     1
102
RTVSPropertyOp32
 70
     1
  0
XRECORD
  5
A6B
102
{ACAD_REACTORS
330
A6A
102
}
330
A6A
100
AcDbXrecord
280
     1
102
RTVSPropertyOp0
 70
     1
102
RTVSPropertyOp1
 70
     1
102
RTVSPropertyOp2
 70
     1
102
RTVSPropertyOp3
 70
     1
102
RTVSPropertyOp4
 70
     1
102
RTVSPropertyOp5
 70
     1
102
RTVSPropertyOp6
 70
     1
102
RTVSPropertyOp7
 70
     1
102
RTVSPropertyOp8
 70
     1
102
RTVSPropertyOp9
 70
     1
102
RTVSPropertyOp10
 70
     1
102
RTVSPropertyOp11
 70
     1
102
RTVSPropertyOp12
 70
     1
102
RTVSPropertyOp13
 70
     1
102
RTVSPropertyOp14
 70
     1
102
RTVSPropertyOp15
 70
     1
102
RTVSPropertyOp16
 70
     1
102
RTVSPropertyOp17
 70
     1
102
RTVSPropertyOp18
 70
     1
102
RTVSPropertyOp19
 70
     1
102
RTVSPropertyOp20
 70
     1
102
RTVSPropertyOp21
 70
     1
102
RTVSPropertyOp22
 70
     1
102
RTVSPropertyOp23
 70
     1
102
RTVSPropertyOp24
 70
     1
102
RTVSPropertyOp25
 70
     1
102
RTVSPropertyOp26
 70
     1
102
RTVSPropertyOp27
 70
     1
102
RTVSPropertyOp28
 70
     1
102
RTVSPropertyOp29
 70
     1
102
RTVSPropertyOp30
 70
     1
102
RTVSPropertyOp31
 70
     1
102
RTVSPropertyOp32
 70
     1
  0
XRECORD
  5
A6D
102
{ACAD_REACTORS
330
A6C
102
}
330
A6C
100
AcDbXrecord
280
     1
102
RTVSPropertyOp0
 70
     1
102
RTVSPropertyOp1
 70
     1
102
RTVSPropertyOp2
 70
     1
102
RTVSPropertyOp3
 70
     1
102
RTVSPropertyOp4
 70
     1
102
RTVSPropertyOp5
 70
     1
102
RTVSPropertyOp6
 70
     1
102
RTVSPropertyOp7
 70
     1
102
RTVSPropertyOp8
 70
     1
102
RTVSPropertyOp9
 70
     1
102
RTVSPropertyOp10
 70
     1
102
RTVSPropertyOp11
 70
     1
102
RTVSPropertyOp12
 70
     1
102
RTVSPropertyOp13
 70
     1
102
RTVSPropertyOp14
 70
     1
102
RTVSPropertyOp15
 70
     1
102
RTVSPropertyOp16
 70
     1
102
RTVSPropertyOp17
 70
     1
102
RTVSPropertyOp18
 70
     1
102
RTVSPropertyOp19
 70
     1
102
RTVSPropertyOp20
 70
     1
102
RTVSPropertyOp21
 70
     1
102
RTVSPropertyOp22
 70
     1
102
RTVSPropertyOp23
 70
     1
102
RTVSPropertyOp24
 70
     1
102
RTVSPropertyOp25
 70
     1
102
RTVSPropertyOp26
 70
     1
102
RTVSPropertyOp27
 70
     1
102
RTVSPropertyOp28
 70
     1
102
RTVSPropertyOp29
 70
     1
102
RTVSPropertyOp30
 70
     1
102
RTVSPropertyOp31
 70
     1
102
RTVSPropertyOp32
 70
     1
  0
XRECORD
  5
A6F
102
{ACAD_REACTORS
330
A6E
102
}
330
A6E
100
AcDbXrecord
280
     1
102
RTVSPropertyOp0
 70
     1
102
RTVSPropertyOp1
 70
     1
102
RTVSPropertyOp2
 70
     1
102
RTVSPropertyOp3
 70
     1
102
RTVSPropertyOp4
 70
     1
102
RTVSPropertyOp5
 70
     1
102
RTVSPropertyOp6
 70
     1
102
RTVSPropertyOp7
 70
     1
102
RTVSPropertyOp8
 70
     1
102
RTVSPropertyOp9
 70
     1
102
RTVSPropertyOp10
 70
     1
102
RTVSPropertyOp11
 70
     1
102
RTVSPropertyOp12
 70
     1
102
RTVSPropertyOp13
 70
     1
102
RTVSPropertyOp14
 70
     1
102
RTVSPropertyOp15
 70
     1
102
RTVSPropertyOp16
 70
     1
102
RTVSPropertyOp17
 70
     1
102
RTVSPropertyOp18
 70
     1
102
RTVSPropertyOp19
 70
     1
102
RTVSPropertyOp20
 70
     1
102
RTVSPropertyOp21
 70
     1
102
RTVSPropertyOp22
 70
     1
102
RTVSPropertyOp23
 70
     1
102
RTVSPropertyOp24
 70
     1
102
RTVSPropertyOp25
 70
     1
102
RTVSPropertyOp26
 70
     1
102
RTVSPropertyOp27
 70
     1
102
RTVSPropertyOp28
 70
     1
102
RTVSPropertyOp29
 70
     1
102
RTVSPropertyOp30
 70
     1
102
RTVSPropertyOp31
 70
     1
102
RTVSPropertyOp32
 70
     1
  0
XRECORD
  5
A90
102
{ACAD_REACTORS
330
A8F
102
}
330
A8F
100
AcDbXrecord
280
     1
102
RTVSPropertyOp0
 70
     1
102
RTVSPropertyOp1
 70
     1
102
RTVSPropertyOp2
 70
     1
102
RTVSPropertyOp3
 70
     1
102
RTVSPropertyOp4
 70
     1
102
RTVSPropertyOp5
 70
     1
102
RTVSPropertyOp6
 70
     1
102
RTVSPropertyOp7
 70
     1
102
RTVSPropertyOp8
 70
     1
102
RTVSPropertyOp9
 70
     1
102
RTVSPropertyOp10
 70
     1
102
RTVSPropertyOp11
 70
     1
102
RTVSPropertyOp12
 70
     1
102
RTVSPropertyOp13
 70
     1
102
RTVSPropertyOp14
 70
     1
102
RTVSPropertyOp15
 70
     1
102
RTVSPropertyOp16
 70
     1
102
RTVSPropertyOp17
 70
     1
102
RTVSPropertyOp18
 70
     1
102
RTVSPropertyOp19
 70
     1
102
RTVSPropertyOp20
 70
     1
102
RTVSPropertyOp21
 70
     1
102
RTVSPropertyOp22
 70
     1
102
RTVSPropertyOp23
 70
     1
102
RTVSPropertyOp24
 70
     1
102
RTVSPropertyOp25
 70
     1
102
RTVSPropertyOp26
 70
     1
102
RTVSPropertyOp27
 70
     1
102
RTVSPropertyOp28
 70
     1
102
RTVSPropertyOp29
 70
     1
102
RTVSPropertyOp30
 70
     1
102
RTVSPropertyOp31
 70
     1
102
RTVSPropertyOp32
 70
     1
  0
XRECORD
  5
A9C
102
{ACAD_REACTORS
330
A9B
102
}
330
A9B
100
AcDbXrecord
280
     1
102
RTVSPropertyOp0
 70
     0
102
RTVSPropertyOp1
 70
     0
102
RTVSPropertyOp2
 70
     0
102
RTVSPropertyOp3
 70
     0
102
RTVSPropertyOp4
 70
     0
102
RTVSPropertyOp5
 70
     0
102
RTVSPropertyOp6
 70
     0
102
RTVSPropertyOp7
 70
     0
102
RTVSPropertyOp8
 70
     0
102
RTVSPropertyOp9
 70
     0
102
RTVSPropertyOp10
 70
     0
102
RTVSPropertyOp11
 70
     0
102
RTVSPropertyOp12
 70
     0
102
RTVSPropertyOp13
 70
     0
102
RTVSPropertyOp14
 70
     2
102
RTVSPropertyOp15
 70
     0
102
RTVSPropertyOp16
 70
     0
102
RTVSPropertyOp17
 70
     0
102
RTVSPropertyOp18
 70
     0
102
RTVSPropertyOp19
 70
     0
102
RTVSPropertyOp20
 70
     0
102
RTVSPropertyOp21
 70
     0
102
RTVSPropertyOp22
 70
     0
102
RTVSPropertyOp23
 70
     0
102
RTVSPropertyOp24
 70
     0
102
RTVSPropertyOp25
 70
     0
102
RTVSPropertyOp26
 70
     0
102
RTVSPropertyOp27
 70
     0
102
RTVSPropertyOp28
 70
     0
102
RTVSPropertyOp29
 70
     0
102
RTVSPropertyOp30
 70
     0
102
RTVSPropertyOp31
 70
     0
102
RTVSPropertyOp32
 70
     0
  0
XRECORD
  5
A83
102
{ACAD_REACTORS
330
A82
102
}
330
A82
100
AcDbXrecord
280
     1
102
RTVSPropertyOp0
 70
     1
102
RTVSPropertyOp1
 70
     1
102
RTVSPropertyOp2
 70
     1
102
RTVSPropertyOp3
 70
     1
102
RTVSPropertyOp4
 70
     1
102
RTVSPropertyOp5
 70
     1
102
RTVSPropertyOp6
 70
     1
102
RTVSPropertyOp7
 70
     1
102
RTVSPropertyOp8
 70
     1
102
RTVSPropertyOp9
 70
     1
102
RTVSPropertyOp10
 70
     1
102
RTVSPropertyOp11
 70
     1
102
RTVSPropertyOp12
 70
     1
102
RTVSPropertyOp13
 70
     1
102
RTVSPropertyOp14
 70
     1
102
RTVSPropertyOp15
 70
     1
102
RTVSPropertyOp16
 70
     1
102
RTVSPropertyOp17
 70
     1
102
RTVSPropertyOp18
 70
     1
102
RTVSPropertyOp19
 70
     1
102
RTVSPropertyOp20
 70
     1
102
RTVSPropertyOp21
 70
     1
102
RTVSPropertyOp22
 70
     1
102
RTVSPropertyOp23
 70
     1
102
RTVSPropertyOp24
 70
     1
102
RTVSPropertyOp25
 70
     1
102
RTVSPropertyOp26
 70
     1
102
RTVSPropertyOp27
 70
     1
102
RTVSPropertyOp28
 70
     1
102
RTVSPropertyOp29
 70
     1
102
RTVSPropertyOp30
 70
     1
102
RTVSPropertyOp31
 70
     1
102
RTVSPropertyOp32
 70
     1
  0
XRECORD
  5
A9E
102
{ACAD_REACTORS
330
A9D
102
}
330
A9D
100
AcDbXrecord
280
     1
102
RTVSPropertyOp0
 70
     0
102
RTVSPropertyOp1
 70
     0
102
RTVSPropertyOp2
 70
     0
102
RTVSPropertyOp3
 70
     0
102
RTVSPropertyOp4
 70
     0
102
RTVSPropertyOp5
 70
     0
102
RTVSPropertyOp6
 70
     0
102
RTVSPropertyOp7
 70
     0
102
RTVSPropertyOp8
 70
     0
102
RTVSPropertyOp9
 70
     0
102
RTVSPropertyOp10
 70
     0
102
RTVSPropertyOp11
 70
     0
102
RTVSPropertyOp12
 70
     0
102
RTVSPropertyOp13
 70
     0
102
RTVSPropertyOp14
 70
     2
102
RTVSPropertyOp15
 70
     0
102
RTVSPropertyOp16
 70
     0
102
RTVSPropertyOp17
 70
     0
102
RTVSPropertyOp18
 70
     0
102
RTVSPropertyOp19
 70
     0
102
RTVSPropertyOp20
 70
     0
102
RTVSPropertyOp21
 70
     0
102
RTVSPropertyOp22
 70
     0
102
RTVSPropertyOp23
 70
     0
102
RTVSPropertyOp24
 70
     0
102
RTVSPropertyOp25
 70
     0
102
RTVSPropertyOp26
 70
     0
102
RTVSPropertyOp27
 70
     0
102
RTVSPropertyOp28
 70
     0
102
RTVSPropertyOp29
 70
     0
102
RTVSPropertyOp30
 70
     0
102
RTVSPropertyOp31
 70
     0
102
RTVSPropertyOp32
 70
     0
  0
XRECORD
  5
A7B
102
{ACAD_REACTORS
330
A7A
102
}
330
A7A
100
AcDbXrecord
280
     1
102
RTVSPropertyOp0
 70
     1
102
RTVSPropertyOp1
 70
     1
102
RTVSPropertyOp2
 70
     1
102
RTVSPropertyOp3
 70
     1
102
RTVSPropertyOp4
 70
     1
102
RTVSPropertyOp5
 70
     1
102
RTVSPropertyOp6
 70
     1
102
RTVSPropertyOp7
 70
     1
102
RTVSPropertyOp8
 70
     1
102
RTVSPropertyOp9
 70
     1
102
RTVSPropertyOp10
 70
     1
102
RTVSPropertyOp11
 70
     1
102
RTVSPropertyOp12
 70
     1
102
RTVSPropertyOp13
 70
     1
102
RTVSPropertyOp14
 70
     1
102
RTVSPropertyOp15
 70
     1
102
RTVSPropertyOp16
 70
     1
102
RTVSPropertyOp17
 70
     1
102
RTVSPropertyOp18
 70
     1
102
RTVSPropertyOp19
 70
     1
102
RTVSPropertyOp20
 70
     1
102
RTVSPropertyOp21
 70
     1
102
RTVSPropertyOp22
 70
     1
102
RTVSPropertyOp23
 70
     1
102
RTVSPropertyOp24
 70
     1
102
RTVSPropertyOp25
 70
     1
102
RTVSPropertyOp26
 70
     1
102
RTVSPropertyOp27
 70
     1
102
RTVSPropertyOp28
 70
     1
102
RTVSPropertyOp29
 70
     1
102
RTVSPropertyOp30
 70
     1
102
RTVSPropertyOp31
 70
     1
102
RTVSPropertyOp32
 70
     1
  0
XRECORD
  5
A9A
102
{ACAD_REACTORS
330
A99
102
}
330
A99
100
AcDbXrecord
280
     1
102
RTVSPropertyOp0
 70
     1
102
RTVSPropertyOp1
 70
     1
102
RTVSPropertyOp2
 70
     1
102
RTVSPropertyOp3
 70
     1
102
RTVSPropertyOp4
 70
     1
102
RTVSPropertyOp5
 70
     1
102
RTVSPropertyOp6
 70
     1
102
RTVSPropertyOp7
 70
     1
102
RTVSPropertyOp8
 70
     1
102
RTVSPropertyOp9
 70
     1
102
RTVSPropertyOp10
 70
     1
102
RTVSPropertyOp11
 70
     1
102
RTVSPropertyOp12
 70
     1
102
RTVSPropertyOp13
 70
     1
102
RTVSPropertyOp14
 70
     1
102
RTVSPropertyOp15
 70
     1
102
RTVSPropertyOp16
 70
     1
102
RTVSPropertyOp17
 70
     1
102
RTVSPropertyOp18
 70
     1
102
RTVSPropertyOp19
 70
     1
102
RTVSPropertyOp20
 70
     1
102
RTVSPropertyOp21
 70
     1
102
RTVSPropertyOp22
 70
     1
102
RTVSPropertyOp23
 70
     1
102
RTVSPropertyOp24
 70
     1
102
RTVSPropertyOp25
 70
     1
102
RTVSPropertyOp26
 70
     1
102
RTVSPropertyOp27
 70
     1
102
RTVSPropertyOp28
 70
     1
102
RTVSPropertyOp29
 70
     1
102
RTVSPropertyOp30
 70
     1
102
RTVSPropertyOp31
 70
     1
102
RTVSPropertyOp32
 70
     1
  0
XRECORD
  5
A98
102
{ACAD_REACTORS
330
A97
102
}
330
A97
100
AcDbXrecord
280
     1
102
RTVSPropertyOp0
 70
     1
102
RTVSPropertyOp1
 70
     1
102
RTVSPropertyOp2
 70
     1
102
RTVSPropertyOp3
 70
     1
102
RTVSPropertyOp4
 70
     1
102
RTVSPropertyOp5
 70
     1
102
RTVSPropertyOp6
 70
     1
102
RTVSPropertyOp7
 70
     1
102
RTVSPropertyOp8
 70
     1
102
RTVSPropertyOp9
 70
     1
102
RTVSPropertyOp10
 70
     1
102
RTVSPropertyOp11
 70
     1
102
RTVSPropertyOp12
 70
     1
102
RTVSPropertyOp13
 70
     1
102
RTVSPropertyOp14
 70
     1
102
RTVSPropertyOp15
 70
     1
102
RTVSPropertyOp16
 70
     1
102
RTVSPropertyOp17
 70
     1
102
RTVSPropertyOp18
 70
     1
102
RTVSPropertyOp19
 70
     1
102
RTVSPropertyOp20
 70
     1
102
RTVSPropertyOp21
 70
     1
102
RTVSPropertyOp22
 70
     1
102
RTVSPropertyOp23
 70
     1
102
RTVSPropertyOp24
 70
     1
102
RTVSPropertyOp25
 70
     1
102
RTVSPropertyOp26
 70
     1
102
RTVSPropertyOp27
 70
     1
102
RTVSPropertyOp28
 70
     1
102
RTVSPropertyOp29
 70
     1
102
RTVSPropertyOp30
 70
     1
102
RTVSPropertyOp31
 70
     1
102
RTVSPropertyOp32
 70
     1
  0
XRECORD
  5
A92
102
{ACAD_REACTORS
330
A91
102
}
330
A91
100
AcDbXrecord
280
     1
102
RTVSPropertyOp0
 70
     1
102
RTVSPropertyOp1
 70
     1
102
RTVSPropertyOp2
 70
     1
102
RTVSPropertyOp3
 70
     1
102
RTVSPropertyOp4
 70
     1
102
RTVSPropertyOp5
 70
     1
102
RTVSPropertyOp6
 70
     1
102
RTVSPropertyOp7
 70
     1
102
RTVSPropertyOp8
 70
     1
102
RTVSPropertyOp9
 70
     1
102
RTVSPropertyOp10
 70
     1
102
RTVSPropertyOp11
 70
     1
102
RTVSPropertyOp12
 70
     1
102
RTVSPropertyOp13
 70
     1
102
RTVSPropertyOp14
 70
     1
102
RTVSPropertyOp15
 70
     1
102
RTVSPropertyOp16
 70
     1
102
RTVSPropertyOp17
 70
     1
102
RTVSPropertyOp18
 70
     1
102
RTVSPropertyOp19
 70
     1
102
RTVSPropertyOp20
 70
     1
102
RTVSPropertyOp21
 70
     1
102
RTVSPropertyOp22
 70
     1
102
RTVSPropertyOp23
 70
     1
102
RTVSPropertyOp24
 70
     1
102
RTVSPropertyOp25
 70
     1
102
RTVSPropertyOp26
 70
     1
102
RTVSPropertyOp27
 70
     1
102
RTVSPropertyOp28
 70
     1
102
RTVSPropertyOp29
 70
     1
102
RTVSPropertyOp30
 70
     1
102
RTVSPropertyOp31
 70
     1
102
RTVSPropertyOp32
 70
     1
  0
XRECORD
  5
A94
102
{ACAD_REACTORS
330
A93
102
}
330
A93
100
AcDbXrecord
280
     1
102
RTVSPropertyOp0
 70
     1
102
RTVSPropertyOp1
 70
     1
102
RTVSPropertyOp2
 70
     1
102
RTVSPropertyOp3
 70
     1
102
RTVSPropertyOp4
 70
     1
102
RTVSPropertyOp5
 70
     1
102
RTVSPropertyOp6
 70
     1
102
RTVSPropertyOp7
 70
     1
102
RTVSPropertyOp8
 70
     1
102
RTVSPropertyOp9
 70
     1
102
RTVSPropertyOp10
 70
     1
102
RTVSPropertyOp11
 70
     1
102
RTVSPropertyOp12
 70
     1
102
RTVSPropertyOp13
 70
     1
102
RTVSPropertyOp14
 70
     1
102
RTVSPropertyOp15
 70
     1
102
RTVSPropertyOp16
 70
     1
102
RTVSPropertyOp17
 70
     1
102
RTVSPropertyOp18
 70
     1
102
RTVSPropertyOp19
 70
     1
102
RTVSPropertyOp20
 70
     1
102
RTVSPropertyOp21
 70
     1
102
RTVSPropertyOp22
 70
     1
102
RTVSPropertyOp23
 70
     1
102
RTVSPropertyOp24
 70
     1
102
RTVSPropertyOp25
 70
     1
102
RTVSPropertyOp26
 70
     1
102
RTVSPropertyOp27
 70
     1
102
RTVSPropertyOp28
 70
     1
102
RTVSPropertyOp29
 70
     1
102
RTVSPropertyOp30
 70
     1
102
RTVSPropertyOp31
 70
     1
102
RTVSPropertyOp32
 70
     1
  0
XRECORD
  5
A81
102
{ACAD_REACTORS
330
A80
102
}
330
A80
100
AcDbXrecord
280
     1
102
RTVSPropertyOp0
 70
     1
102
RTVSPropertyOp1
 70
     1
102
RTVSPropertyOp2
 70
     1
102
RTVSPropertyOp3
 70
     1
102
RTVSPropertyOp4
 70
     1
102
RTVSPropertyOp5
 70
     1
102
RTVSPropertyOp6
 70
     1
102
RTVSPropertyOp7
 70
     1
102
RTVSPropertyOp8
 70
     1
102
RTVSPropertyOp9
 70
     1
102
RTVSPropertyOp10
 70
     1
102
RTVSPropertyOp11
 70
     1
102
RTVSPropertyOp12
 70
     1
102
RTVSPropertyOp13
 70
     1
102
RTVSPropertyOp14
 70
     1
102
RTVSPropertyOp15
 70
     1
102
RTVSPropertyOp16
 70
     1
102
RTVSPropertyOp17
 70
     1
102
RTVSPropertyOp18
 70
     1
102
RTVSPropertyOp19
 70
     1
102
RTVSPropertyOp20
 70
     1
102
RTVSPropertyOp21
 70
     1
102
RTVSPropertyOp22
 70
     1
102
RTVSPropertyOp23
 70
     1
102
RTVSPropertyOp24
 70
     1
102
RTVSPropertyOp25
 70
     1
102
RTVSPropertyOp26
 70
     1
102
RTVSPropertyOp27
 70
     1
102
RTVSPropertyOp28
 70
     1
102
RTVSPropertyOp29
 70
     1
102
RTVSPropertyOp30
 70
     1
102
RTVSPropertyOp31
 70
     1
102
RTVSPropertyOp32
 70
     1
  0
XRECORD
  5
A8E
102
{ACAD_REACTORS
330
A8D
102
}
330
A8D
100
AcDbXrecord
280
     1
102
RTVSPropertyOp0
 70
     1
102
RTVSPropertyOp1
 70
     1
102
RTVSPropertyOp2
 70
     1
102
RTVSPropertyOp3
 70
     1
102
RTVSPropertyOp4
 70
     1
102
RTVSPropertyOp5
 70
     1
102
RTVSPropertyOp6
 70
     1
102
RTVSPropertyOp7
 70
     1
102
RTVSPropertyOp8
 70
     1
102
RTVSPropertyOp9
 70
     1
102
RTVSPropertyOp10
 70
     1
102
RTVSPropertyOp11
 70
     1
102
RTVSPropertyOp12
 70
     1
102
RTVSPropertyOp13
 70
     1
102
RTVSPropertyOp14
 70
     1
102
RTVSPropertyOp15
 70
     1
102
RTVSPropertyOp16
 70
     1
102
RTVSPropertyOp17
 70
     1
102
RTVSPropertyOp18
 70
     1
102
RTVSPropertyOp19
 70
     1
102
RTVSPropertyOp20
 70
     1
102
RTVSPropertyOp21
 70
     1
102
RTVSPropertyOp22
 70
     1
102
RTVSPropertyOp23
 70
     1
102
RTVSPropertyOp24
 70
     1
102
RTVSPropertyOp25
 70
     1
102
RTVSPropertyOp26
 70
     1
102
RTVSPropertyOp27
 70
     1
102
RTVSPropertyOp28
 70
     1
102
RTVSPropertyOp29
 70
     1
102
RTVSPropertyOp30
 70
     1
102
RTVSPropertyOp31
 70
     1
102
RTVSPropertyOp32
 70
     1
  0
XRECORD
  5
A96
102
{ACAD_REACTORS
330
A95
102
}
330
A95
100
AcDbXrecord
280
     1
102
RTVSPropertyOp0
 70
     1
102
RTVSPropertyOp1
 70
     1
102
RTVSPropertyOp2
 70
     1
102
RTVSPropertyOp3
 70
     1
102
RTVSPropertyOp4
 70
     1
102
RTVSPropertyOp5
 70
     1
102
RTVSPropertyOp6
 70
     1
102
RTVSPropertyOp7
 70
     1
102
RTVSPropertyOp8
 70
     1
102
RTVSPropertyOp9
 70
     1
102
RTVSPropertyOp10
 70
     1
102
RTVSPropertyOp11
 70
     1
102
RTVSPropertyOp12
 70
     1
102
RTVSPropertyOp13
 70
     1
102
RTVSPropertyOp14
 70
     1
102
RTVSPropertyOp15
 70
     1
102
RTVSPropertyOp16
 70
     1
102
RTVSPropertyOp17
 70
     1
102
RTVSPropertyOp18
 70
     1
102
RTVSPropertyOp19
 70
     1
102
RTVSPropertyOp20
 70
     1
102
RTVSPropertyOp21
 70
     1
102
RTVSPropertyOp22
 70
     1
102
RTVSPropertyOp23
 70
     1
102
RTVSPropertyOp24
 70
     1
102
RTVSPropertyOp25
 70
     1
102
RTVSPropertyOp26
 70
     1
102
RTVSPropertyOp27
 70
     1
102
RTVSPropertyOp28
 70
     1
102
RTVSPropertyOp29
 70
     1
102
RTVSPropertyOp30
 70
     1
102
RTVSPropertyOp31
 70
     1
102
RTVSPropertyOp32
 70
     1
  0
ENDSEC
  0
EOF
